Arch Enemy - Beast Of Man Chords & Tabs

 

Beast Of Man Chords & Tabs

Arch Enemy Chords & Tabs

Version: 2 Type: Tab 0 ratings
1 star 2 stars 3 stars 4 stars 5 stars
comments

Beast Of Man Tab

                  ARCH ENEMY - Beast Of Man (SOLO)
                     From the Album STIGMATA
                    Version 1.0 - JANUARY 2001

Transcribed by: Brad Goldsworthy (goldie123@start.com.au)

For Questions, Comments, Newest Version, or Corrections contact me

Check Out Death Warp, With More Transcriptions On It:
 http://tiger.towson.edu/~dalvis1

..  - palm mute          /  - slide up to
 \  - slide down to      ~  - vibrato
 h  - hammer on          b  - bend
 p  - pull off            Suffixes for bend
                          ph - pinch harmonic
                           f - full bend    h - half bend
*  - see comment           r - release      t - tap bend
X  - percussion mute       ~ - vibrato bend
@  - slight palm mute     () - ghost note, sustained note

ARCH ENEMY - Beast Of Man

Tune to B

Mike's solo at 2:46                                              
|23bfr-22-20-19---------------------------------------------------15-17-19-
|---------------22~---12-13-12h13p12-10-------15-15-17~--15-17-18----------
|---------------------------------------12-10------------------------------
|--------------------------------------------------------------------------
|--------------------------------------------------------------------------
|--------------------------------------------------------------------------
                                                                 
[ Tab from: http://www.guitartabs.cc/tabs/a/arch_enemy/beast_of_man_tab_ver_2.html ]
                                                                 
|-20-19-16/17-19-17---11bf-9-8-7h8p7h8---------17-19-20-19-17-19-17h19p17-
|--------------------------------------10/--17----------------------------
|-------------------------------------------------------------------------
|-------------------------------------------------------------------------
|-------------------------------------------------------------------------
|-------------------------------------------------------------------------
                                                                 

                                                                 
|----17~--------17-19-20-19-20-22-20-19~--15h17-15h17-15h17-15h17-15h17---
|-20---------17-----------------------------------------------------------
|-------------------------------------------------------------------------
|-------------------------------------------------------------------------
|-------------------------------------------------------------------------
|-------------------------------------------------------------------------
                                                                 

                                                                 
|-20-22-23bf-23bf-23bf-20h22h23p22----------------------------------------
|----------------------------------22~------------------------------------
|-------------------------------------------------------------------------
|-------------------------------------------------------------------------
|-------------------------------------------------------------------------
|-------------------------------------------------------------------------

Check Out Death Warp, With More Transcriptions On It:
 http://tiger.towson.edu/~dalvis1
Comments