Arcane Roots - Over And Over Chords & Tabs

 

Over And Over Chords & Tabs

Arcane Roots Chords & Tabs

Version: 1 Type: Bass Tab 0 ratings
1 star 2 stars 3 stars 4 stars 5 stars
comments

Over And Over Bass Tab

   
Intro
G|------------------------------------|
D|------------------------------------|
A|------------------------------------|
E|-12-0-0-12-0-0-12-0-0-12-0-0-12-0-0-|

G|-------------------------------------------------|
D|-------------------------------------------------|
A|-------------------------------------------------|
E|-12-0-12-0-12-0-0-12-12-12-11-11-11-11-11-11-11--|

G|------------------------------------|
D|------------------------------------|
A|------------------------------------|
E|-12-0-0-12-0-0-12-0-0-12-0-0-12-0-0-|

G|----------------------------------------------------------------|
D|----------------------------------------------------------------|
A|----------------------------------------------------------------|
E|-12-0-13-0-11-0-0-11-11-11-0-11-11-11-0-11-0-0------------------|

No bass for first half of first verse

G|---------------|---------------|---------------|---------------|
D|---------------|---------------|---------------|---------------|
A|---------------|---------------|---------------|---------------|
E|-0----0--0---0-|-0----0--0---0-|-0----0--0---0-|-0----0--0---0-|

G|---------------|---------------|---------------|---------------|
D|---------------|---------------|---------------|---------------|
A|---------------|---------------|---------------|---------------|
E|-5----5--5---5-|-5----5--5---5-|-2----2--2---2-|-5----5--5---5-|

G|---------------|---------------|---------------|---------------|
D|---------------|---------------|---------------|---------------|
A|---------------|---------------|---------------|---------------|
E|-0----0--0---0-|-0----0--0---0-|-0----0--0---0-|-0----0--0---0-|

G|---------------|---------------|---------------|---------------|
D|---------------|---------------|---------------|---------------|
A|---------------|---------------|---------------|---------------|
E|-5----5--5---5-|-5----5--5---5-|-7----7--7---7-|-7----7--7---7-|

Chorus - just basic notes listen to track for rhythm
G|--------------------------------------|
D|--------------------------------------|x2
A|--------------------------------------|
E|--0--------------4----------7---------|

G|--------------------------------------|
D|--------------------------------------|
A|--------------------------------------|
E|--5--------------12----------7--------|

G|---------------------------------------|
D|---------------------------------------|
A|---------------------------------------|
E|--5--------------0----------2----4-----|

Break
G|----------------------------------------------------------|
D|----------------------------------------------------------|x2
A|----------------------------------------------------------|
E|-0-0-12--0---12--0----12\--0----4h5--5-7-5-4---4----2h4~--|


'so baby would I....      ...had to crawl'
G|---------------------------------------------------|
D|---------------------------------------------------|
A|-----------------------------------4-0-0-6-0-7h9-9-|
E|-5-------------------------------------------------|
[ Tab from: http://www.guitartabs.cc/tabs/a/arcane_roots/over_and_over_btab.html ]
G|----------------------------------------------------------|
D|----------------------------------------------------------|
A|----------------------------------------------------------|
E|-0-0-12--0---12--0----12\--0----4h5--5-7-5-4---4----2h4~--|

G|--------------------------------------------------------|
D|--------------------------------------------------------|
A|--------(4)---------------------------------------------|
E|-5----------(5)-------------4--5--------4--5--------7---|

Chorus
G|--------------------------------------|
D|--------------------------------------|x2
A|--------------------------------------|
E|--0--------------4----------7---------|

G|--------------------------------------|
D|--------------------------------------|
A|--------------------------------------|
E|--5--------------0-----12----7--------|

G|---------------------------------------|
D|---------------------------------------|
A|---------------------------------------|
E|--5--------------0-----------7---------|

'you'll be around me....'
G|--------------------------------------------------------------------------|
D|--------------------------------------------------------------------------|
A|-------------------------0-0-0-0-0----------------------------------------|
E|--12-0-0-12-0-0---------------------------12-0-0-12-0-0-------7-----------|
                                                                *driving
All driving
G|------------------------------------------------------------------|
D|------------------------------------------------------------------|
A|------------------------------------------------------------------|
E|--9-------5-------0-------7-------9-------5-------0-------2-------|

G|-------------------------------------------------------------------------|
D|-------------------------------------------------------------------------|
A|-------------------------------------------------------------------------|
E|--9-------5-------6-------2-------9-------5-------0---0---0----7-7-7-7---|

Chorus
G|--------------------------------------|
D|--------------------------------------|x2
A|--------------------------------------|
E|--0--------------4----------7---------|

G|--------------------------------------|
D|--------------------------------------|
A|--------------------------------------|
E|--5--------------0-----12----7--------|

G|---------------------------------------|
D|---------------------------------------|
A|---------------------------------------|
E|--5--------------0-----------7---------|

Outro
G|--------------------------------------|
D|--------------------------------------|x4
A|--------------------------------------|
E|--0--------------4----------7---------|

G|-----------------------------------|
D|-----------------------------------|
A|-----------------------------------|
E|--0--------------------------------|


And that is it. There are subtle fills during the verse and break but I really cant hear 
them clear enough to work them out but hopefully this is useful. Will be doing a full 
band cover of this song if you are interested so will add a link when its up.
Comments