Arcane Roots - In This Town Of Such Weather Chords & Tabs

 

In This Town Of Such Weather Chords & Tabs

Arcane Roots Chords & Tabs

Version: 1 Type: Tab 0 ratings
1 star 2 stars 3 stars 4 stars 5 stars
comments

In This Town Of Such Weather Tab

Intro - repeat 5 times then and stopping at the * on the sixth time
E|--------------------------------------------------------------------------|
B|--------------------------------------------------------------------------|
G|--9-----------------9-------------------9----------------7-7-7-7-4-4-4-4--|
D|--9-----------------9------------8-7-5--9----------------8-8-8-8-5-5-5-5--|
A|--7-----------------7------------8-7-5--7----------------8-8-8-8-5-5-5-5--|
E|--0--0-3-0h3h5p3-0--0--0h3h5p3p0-6-5-3--0--0-3-0h3h5p3-0-6-6-6-6-3-3-3-3--|
                                                           *
Verse
E|---------------------------------------------------------------------|
B|------11b(12b11)-0-----11b(12b11)-0------------------x-x-------x-x---|
G|--9---9-b(10b9-)-0--9--9-b(10b9-)-0---9--9-9----4-4--x-x--4-4--x-x---|
D|--9-----------------9-----------------10-1010---5-5--x-x--5-5--x-x---|
A|--7-----------------7-----------------10-1010---5-5--x-x--5-5--x-x---|
E|--0-----------------0-----------------8--8-8----3-3-------3-3--------|

E|-------------------------------------------------------------|
B|------11b(12b11)-0-----11b(12b11)-0--------------------------|
G|--9---9-b(10b9-)-0--9--9-b(10b9-)-0---9--9-9----8-8-8-8-8----|x2
D|--9-----------------9-----------------10-1010---9-9-9-9-9----|
A|--7-----------------7-----------------10-1010---9-9-9-9-9----|
E|--0-----------------0-----------------8--8-8----7-7-7-7-7----|

Chorus (first half)  (driving)
E|----------------------------------------------------|
B|---------------------------------------4-----5------|
G|--5-----4-----8-----9------5-----4-----x-----x------|
D|--7-----5-----9-----10-----7-----5-----4-----5------|
A|--7-----5-----9-----10-----7-----5-----x-----x------|
E|--5-----3-----7-----8------5-----3-----2-----3------|

Repeat Verse 

E|----------------------------------------------------|
B|---------------------------------------4-----5------|
G|--5-----4-----8-----9------5-----4-----x-----x------|
D|--7-----5-----9-----10-----7-----5-----4-----5------|
A|--7-----5-----9-----10-----7-----5-----x-----x------|
E|--5-----3-----7-----8------5-----3-----2-----3------|

E|--------------------------------------------------------------|
B|---------------------------------------4----------------------|
G|--5-----4-----8-----9------5-----4-----x-----9----------------|
D|--7-----5-----9-----10-----7-----5-----4-----9----------------|
A|--7-----5-----9-----10-----7-----5-----x-----7----------------|
E|--5-----3-----7-----8------5-----3-----2-----0--0-3-0h3h5p3-0-|

Chorus (second half)
E|--------------------------------------------------------------|
B|--------------------------------------------------------------|
G|--5--5---5---5--5-5-5--5--5---5--5---5---5---5-5-5---4--4--4--|
D|--x--x---x---x--x-x-x--x--x---x--x---x---x---x-x-x---x--x--x--|
A|--x--x---x---x--x-x-x--x--x---x--x---x---x---x-x-x---x--x--x--|
E|--5--5---5---5--5-5-5--5--5---5--5---5---5---5-5-5---4--4--4--|

E|--------------------------------------------------------------|
B|--------------------------------------------------------------|
G|--5--5---5---5--5-5-5--5--5---10-10---10--10--9-9-9-9-8-8-8-8-|x2
D|--x--x---x---x--x-x-x--x--x---x--x----x---x---x-x-x-x-x-x-x-x-|
A|--x--x---x---x--x-x-x--x--x---x--x----x---x---x-x-x-x-x-x-x-x-|
E|--5--5---5---5--5-5-5--5--5---10-10---10--10--8-8-8-8-7-7-7-7-|

E|--------------------------------------------------------------|
B|--------------------------------------------------------------|
G|--5--5---5---5--5-5-5--5--5---5--5---5---5---5-5-5---4--4--4--|
D|--7--7---7---7--7-7-7--7--7---7--7---7---7---7-7-7---6--6--6--|
A|--7--7---7---7--7-7-7--7--7---7--7---7---7---7-7-7---6--6--6--|
E|--5--5---5---5--5-5-5--5--5---5--5---5---5---5-5-5---4--4--4--|

E|--------------------------------------------------------------|
B|--------------------------------------------------------------|
G|--5--5---5---5--5-5-5--5--5---10-10---10--10--9-9-9-9-8-8-8-8-|
D|--7--7---7---7--7-7-7--7--7---12-12---12--12--101010109-9-9-9-|
A|--7--7---7---7--7-7-7--7--7---12-12---12--12--101010109-9-9-9-|
E|--5--5---5---5--5-5-5--5--5---10-10---10--10--8-8-8-8-7-7-7-7-|

E|--------------------------------------------------------------|
B|--------------------------------------------------------------|
G|--5--5---5---5--5-5-5--5--5---5--5---5---5---5-5-5---4--4--4--|
D|--7--7---7---7--7-7-7--7--7---7--7---7---7---7-7-7---6--6--6--|
A|--7--7---7---7--7-7-7--7--7---7--7---7---7---7-7-7---6--6--6--|
E|--5--5---5---5--5-5-5--5--5---5--5---5---5---5-5-5---4--4--4--|

E|---------------------------------------------------------------|
B|---------------------------------------------------------------|
G|--5--5---5---5--5-5-5--5--5---10-10---10--10--9-9-9-9-9-9-9-9--|
D|--7--7---7---7--7-7-7--7--7---12-12---12--12--1010101010101010-|
A|--7--7---7---7--7-7-7--7--7---12-12---12--12--1010101010101010-|
E|--5--5---5---5--5-5-5--5--5---10-10---10--10--8-8-8-8-8-8-8-8--|
[ Tab from: http://www.guitartabs.cc/tabs/a/arcane_roots/in_this_town_of_such_weather_tab.html ]
E|----------------------------------------------------------|
B|--7---------7---------7---------4--4--4--4--4b-4b-4b-4b---|
G|--8---------8---------8---------4--4--4--4--4b-4b-4b-4b---|
D|--0---------0---------0-----------------------------------|
A|--6---------6---------6---------2--2--2--2--2b-2b-2b-2b---|
E|--7---------7---------7-----------------------------------|

Middle Section 
E|------------------------------------|   |-------------|
B|------------------------------------|   |-------------|
G|--5--------------5------------------|x4 |-------------|
D|--4--------------4------------------|   |-------------|
A|--3--------------3-----0h3h6-0h2h5--|   |-0h3h6-0h2h5-|
E|----5--0-3-5-3-0----5---------------|   |-------------|

E|------------------------------------|  
B|------------------------------------|   
G|--5--------------5------------------|x4 
D|--4--------------4------------------|  
A|--3--------------3-----0h3h6-0h2h5--|   
E|----5--0-3-5-3-0----5---------------|   

E|----------------------------------------------------|
B|----------------------------------------------------|
G|----5-------------------5----5-4--------------------|
D|----4-----2---3---3-----4--------6-5-------7---8----|
A|----3----1---2----2-----3------------7-6--6--7-7----|
E|--------2---3---3------------------------7---8------|

E|----------------------------------------------------|
B|----------------------------------------------------|
G|----5-----------------5--5--5--5--17--17--17--17----|
D|----4-----2---3---3---4--4--4--4--16--16--16--16----|
A|----3----1---2----2---3--3--3--3--15--15--15--15----|
E|--------2---3---3-----------------------------------|

E|----------------------------------------------------|
B|----------------------------------------------------|
G|----5-------------------5----5-4--------------------|
D|----4-----2---3---3-----4--------6-5-------7---8----|
A|----3----1---2----2-----3------------7-6--6--7-7----|
E|--------2---3---3------------------------7---8------|

E|----------------------|
B|----------------------|
G|----5-----------------|
D|----4-----2---3---3---|
A|----3----1---2----2---|
E|--------2---3---3-----|
                                                            *Pinch Harm.
E|-----------------------------------------------------------------|
B|-----------------------------------------------------------------|
G|-3-----3---3-3---3-----3---3-3-----4-4---4---4-4---4-4---4---4*--|
D|-2-----2---2-2---2-----2---2-2-----3-3---3---3-3---3-3---3-------|
A|-1-1-1-1-1-1-1-1-1-1-1-1-1-1-1-1-2-2-2-2-2-2-2-2-2-2-2-2-2-2-----|
E|-----------------------------------------------------------------|
            all single low notes on A are palm muted

E|--------------------------------------------------------------|
B|--------------------------------------------------------------|
G|---4-4---4---4-4---4-4---4---4~----4-4---4---4-4---4-4---4----|x2
D|---3-3---3---3-3---3-3---3---3~----3-3---3---3-3---3-3---3----|
A|---2-2---2---2-2---2-2---2---2~----2-2---2---2-2---2-2---2----|
E|-0-----0---0-----0-----0---0-----0-----0---0-----0-----0---0--|

Chorus (first half)
E|----------------------------------------------------|
B|---------------------------------------4-----5------|
G|--5-----4-----8-----9------5-----4-----x-----x------|
D|--7-----5-----9-----10-----7-----5-----4-----5------|
A|--7-----5-----9-----10-----7-----5-----x-----x------|
E|--5-----3-----7-----8------5-----3-----2-----3------|

E|--------------------------------------------------------------|
B|---------------------------------------4----------------------|
G|--5-----4-----8-----9------5-----4-----x-----9----------------|
D|--7-----5-----9-----10-----7-----5-----4-----9----------------|
A|--7-----5-----9-----10-----7-----5-----x-----7----------------|
E|--5-----3-----7-----8------5-----3-----2-----0--0-3-0h3h5p3-0-|

Chorus (second half)
E|--------------------------------------------------------------|
B|--------------------------------------------------------------|
G|--5--5---5---5--5-5-5--5--5---5--5---5---5---5-5-5---4--4--4--|
D|--x--x---x---x--x-x-x--x--x---x--x---x---x---x-x-x---x--x--x--|
A|--x--x---x---x--x-x-x--x--x---x--x---x---x---x-x-x---x--x--x--|
E|--5--5---5---5--5-5-5--5--5---5--5---5---5---5-5-5---4--4--4--|

E|--------------------------------------------------------------|
B|--------------------------------------------------------------|
G|--5--5---5---5--5-5-5--5--5---10-10---10--10--9-9-9-9-8-8-8-8-|
D|--x--x---x---x--x-x-x--x--x---x--x----x---x---x-x-x-x-x-x-x-x-|
A|--x--x---x---x--x-x-x--x--x---x--x----x---x---x-x-x-x-x-x-x-x-|
E|--5--5---5---5--5-5-5--5--5---10-10---10--10--8-8-8-8-7-7-7-7-|

E|--------------------------------------------------------------|
B|--------------------------------------------------------------|
G|--5--5---5---5--5-5-5--5--5---5--5---5---5---5-5-5---4--4--4--|
D|--7--7---7---7--7-7-7--7--7---7--7---7---7---7-7-7---6--6--6--|
A|--7--7---7---7--7-7-7--7--7---7--7---7---7---7-7-7---6--6--6--|
E|--5--5---5---5--5-5-5--5--5---5--5---5---5---5-5-5---4--4--4--|

E|-------------------------------------------------------------------|
B|-------------------------------------------------------------------|
G|--5--5---5---5--5-5-5--5--5---10-10---10--10--9-9-9-9--8-----------|
D|--7--7---7---7--7-7-7--7--7---12-12---12--12--10101010-9-----------|
A|--7--7---7---7--7-7-7--7--7---12-12---12--12--10101010-9-----------|
E|--5--5---5---5--5-5-5--5--5---10-10---10--10--8-8-8-8--7-----------|

And that's it. I've done a cover of this tab if you are interested:
https://www.youtube.com/watch?v=xMyb7_9Iy_I&feature=youtu.be

Comments