Arcane Roots - Habibty Chords & Tabs

 

Habibty Chords & Tabs

Arcane Roots Chords & Tabs

Version: 1 Type: Bass Tab 0 ratings
1 star 2 stars 3 stars 4 stars 5 stars
comments

Habibty Bass Tab

Intro
G|--------------------------------------------------------------|
D|-----------------------------7--------------------------------|
A|-----5-------------------------------5---------------------5--|
E|--4-----4-5-4--5-5-4--5-5-4-----5--4---4-5-4--5-5-4--5-5-4----|

G|----------------------------------------------------------------|
D|-------------------------------7--------------------------------|
A|-----5---------------------------------5---------------------5--|
E|--4-----4--5--4--5-5-4--5-5-4-----5--4---4-5-4--5-5-4--5-5-4----|


G|--------------------------------------------------------------|
D|--------------------------------------------------------------|
A|----5----------6-6-6-6---6----------5-----------------5----5--|
E|--4---4-5-0--5---------5---7--6-5-0---4--5-5-4--5-5-4----4----|

G|-----------------------------------------------------------|
D|-----------------------------------------------------------|
A|-----------------------------------------------------------|
E|--5--4--5-5-0--0-6-5-4---12-12-12-12-12-12-12-12-12121212--|

Verse 1
G|---------------------------1----------------|
D|-------------------------2---2--------------|
A|-----2-----------------0--------2--2--1--1--|x2
E|--4-----4\----0--2--------------------------|

G|-----------|-----------|-----------|-----------|
D|-----------|-----------|-----------|-----------|
A|-0-0-0-x-0-|-0-0-0-x-0-|-2-2-2-x-2-|-----------|
E|-----------|-----------|-----------|-2-2-2-x-2-|

G|-----------|-----------|-----------|-----------|
D|-----------|-----------|-----------|-----------|
A|-0-0-0-x-0-|-0-0-0-x-0-|-7-7-7-x-7-|-6-6-6-x-6-|
E|-----------|-----------|-----------|-----------|

Break
G|----------------------------------------------------------------|
D|-------------------------------7--------------------------------|
A|-----5---------------------------------5---------------------5--|
E|--4-----4--5--4--5-5-4--5-5-4-----5--4---4-5-4--5-5-4--5-5-4----|

G|--------------------------------------------------------------|
D|-----------------------------7--------------------------------|
A|-----5-------------------------------5---------------------5--|
E|--4-----4-5-4--5-5-4--5-5-4-----5--4---4-5-4--5-5-4--5-5-4----|

Verse 2 
G|---------------------------------------------|
D|--------------------------2-02--6-8----------|
A|-----2---------0-9--7-7--------------2-2-1-1-|
E|--4-----4--4(0)------------------------------|

G|-----------------------------------------6------4----|
D|--------------------------2-02--6-7--046----046---6--|
A|-----2---------0-9--7-7------------------------------|
E|--4-----4--4(0)--------------------------------------|

G|-----------|-----------|-----------|-----------|
D|-7-7-7-x-7-|-7-7-7-X-7-|-----------|-----------|
A|-----------|-----------|-2-2-2-x-2-|-----------|
E|-----------|-----------|-----------|-2-2-2-x-2-|
[ Tab from: http://www.guitartabs.cc/tabs/a/arcane_roots/habibty_btab.html ]
G|-----------|-----------|-----------|-----------|
D|-----------|-----------|-----------|-----------|
A|-0-0-0-x-0-|-0-0-0-x-0-|-7-7-7-x-7-|-6-6-6-x-6-|
E|-----------|-----------|-----------|-----------|

G|------------|------------|------------|------------|
D|------------|------------|------------|------------|
A|-4--4--4-4--|-4--4--4-4--|-0--0--0-0--|-0--0--0-0--|
E|------------|------------|------------|------------|

G|------------|------------|------------|------------|
D|------------|------------|------------|------------|
A|------------|------------|------------|------------|
E|-2--2--2-2--|-2--2--2-2--|-2--2--2-2--|-2--2--2-2--|

No bass till 'I Hope...'

G|---6--------4--------------------------|
D|---------------------4-----------------|   
A|---------------------------------------|x2
E|---------------------------------------|

G|------------------------------|----------------------------------------|
D|------------------------------|----------------------------------------|
A|-4------2---------------------|-4-----0-----------1-2-4---4-4-6-7--7/9-|
E|----------------2-------------|-------------2--------------------------|

G|------|------|------|------|------|------|------|------|------|-----|-----|
D|------|------|------|------|------|------|------|------|------|-----|-----|
A|-2----|------|-2----|------|------|-7----|----2-|------|-4--2-|-----|-----|
E|------|-2--0-|------|-2--0-|-0----|----0-|-4----|-2--0-|------|-2---|-2---|

G|------|------|------|------|------|------|
D|------|------|------|------|------|------|
A|-2----|------|-2----|------|------|-7----|
E|------|-2--0-|------|-2--0-|-0----|----0-|

G|------------------------------------|
D|------------------------------------|
A|--2------2--2-2--4------------6-7---|x3
E|-----4---------------2--2---0-------|

G|---------------------------------------------------------------|
D|-2----2--4-6----1---------------------------------(3)----------|
A|---4---------2-----2----2--1--1---------------------(3)--------|
E|-----------------------------2---2--2-2-2-2-2-2-------(1~)-----|

Outro
G|-----------------------------------------------------------------------|
D|---3b---------------------------3--------------3---------------3-------|
A|-----------------------------------------------------------------------|
E|--------2---1-0--1------1-0-1-0---0-1---1b--1----0-1---1-0-1-0---0-1---|

G|-------------------------------------|
D|--3-------3--------------------3-----|
A|-------------------------------------|
E|-----2-1-----0-1---0-0--0--0-----0-1-|

G|--------------------------------------------------------------------------|
D|-3---------3---------3----------------3--------3--------3-----------------|
A|--------------------------------------------------------------------------|
E|---0--1------0--1------0--1---2~--3~----0--1-----0--1-----0--1---2~-3~-1~-|



Comments