Arcade Fire - Wake Up Chords & Tabs

 

Wake Up Chords & Tabs

Arcade Fire Chords & Tabs

Version: 1 Type: Bass Tab 0 ratings
1 star 2 stars 3 stars 4 stars 5 stars
comments

Wake Up Bass Tab

   
Artist: Arcade Fire
Song: Wake Up
Album: Funeral
Track: 7
Tabbist: Afibassist4k

Intro:
G|----------------------------------|
D|----------------------------------|
A|-33333335333333353333333533333335-|
E|----------------------------------| x6

Verse:
G|-----------------------------------------------------------------|
D|-----------------------------------------------------------------|
A|-3-3-3-3-3-3-3-553-3-3-3-3-3-2-2-0-0-0-000-0-0---0-0-0-0-0-0-3-5-|
E|-----------------------------------------------3-----------------|

G|-------------------------------------------------------------------|
D|-3---3---3---3---3---3---3-3-3-30----------------------------------|
A|---------------------------------33333353333333533333335333335353--|
E|---1---11--1---11--1---11------------------------------------------| x2

Repeat Intro x3

Repeat Verse x2

Bridge (2:54)
G|-------------------------------------------------------------------|
D|-------------------------------------------------------------------|
A|-333333533333335333333353333333535333335353333353533333535333335~--|
E|-------------------------------------------------------------------|
[ Tab from: http://www.guitartabs.cc/tabs/a/arcade_fire/wake_up_btab.html ]
G|-------------------------------------------------------------------|
D|-------------------------------------------------------------------|
A|--------0-------0-------0------0233333353333333533333335333333355--|
E|-111111--111111--111111--111111------------------------------------|

G|------------------------------------------------------------------|
D|------------------------------------------------------------------|
A|-6-6-6-666-6-6-666-6-6-666-6-5-553-3-353-3-353-3-353-3-353-3-3-55-|
E|------------------------------------------------------------------|

G|-------------------------------------------------------------|
D|-------------------------------------------------------------|
A|-6-6-6-666-6-6-666-6-6-666-6-6-668-8-8-8-8-8-8-8-8-8-8-8-8~--|
E|-------------------------------------------------------------|

Outro Part: (wait two measures and then...)

G|---------------------------------------------------------------|
D|-------------5-5----------------------------2-2----------------|
A|-3-3-3--3-3-3----3-3-3--3-5-3-2-0-0-0--0-0-0----0-0-0-00-0-3-5-|
E|---------------------------------------------------------------|

G|-----------------------------------------------------------------|
D|-3-3-3--3-3-33---3-3-3--3-3-33-5---------------------------------|
A|---------------3-----------------3-3-3--3-3-33---3-3-3--3-3-33---|
E|-----------------------------------------------1---------------1-|x2

rest for a while... play it again twice, end with the last part. tada!
Comments