Arcade Fire - No Cars Go Chords & Tabs

 

No Cars Go Chords & Tabs

Arcade Fire Chords & Tabs

Version: 1 Type: Bass Tab

No Cars Go Bass Tab

this song is normally played on an upright bass

-----------------------------------------------------------------|
-----------------3-3-3-3-3-3-3-3-6-6-6-6-6-6-6-6-6-6-6-6-6-6-6-6-|
-4-4-4-4-4-4-4-4-------------------------------------------------|
-----------------------------------------------------------------| x4

-----------------------------------------------------------------|
-8-8-8-8-8-8-8-8-3-3-3-3-3-3-3-3---------------------------------|
---------------------------------4-4-4-4-4-4-4-4-4-4-4-4-4-4-4-4-|
-----------------------------------------------------------------|

-------------------------------------------------------------------|
-8-8-8-8-8-8-8-8--3-3-3-3-3-3-3-3----------------------------------|
---------------------------------4-4-4-4-4-4-4-4-4-4-4-4-44-33-----|
-------------------------------------------------------------------|

-----------3-3-|
---------------|
-1-1-1-1-1-----|
---------------| x4

1st verse

-----------------------------------------------------------------|
-----------------3-3-3-3-3-3-3-3-6-6-6-6-6-6-6-6-6-6-6-6-6-6-6-6-|
-4-4-4-4-4-4-4-4-------------------------------------------------|
-----------------------------------------------------------------|

-----------------------------------------------------------------|
-----------------3-3-3-3-3-3-3-3-6-6-6-6-6-6-6-6-6-6-6-6-6-6-6-6-|
-4-4-4-4-4-4-4-4-------------------------------------------------|
-----------------------------------------------------------------|

-------------------------------------------------------------------|
-8-8-8-8-8-8-8-8--3-3-3-3-3-3-3-3----------------------------------|
---------------------------------4-4-4-4-4-4-4-4-4-4-4-4-4-4-4-4---|
-------------------------------------------------------------------|

-------------------------------------------------------------------|
-8-8-8-8-8-8-8-8--3-3-3-3-3-3-3-3----------------------------------|
---------------------------------4-4-4-4-4-4-4-4-4-4-4-4-44-33-----|
-------------------------------------------------------------------|

-----------3-3-|
---------------|
-1-1-1-1-1-----|
---------------| x4

2nd verse is the same

Bridge

--------66------|
-86-86----------|
-----------44-4-|
----------------|

--------66------|
-86-86----------|
-----------44-4-|
----------------|

--------66------|
-86-86----------|
-----------44-4-|
----------------|

--------66------|
-86-86----------|
-----------44-4-|
----------------|

Instrumental/ Chorus
[ Tab from: http://www.guitartabs.cc/tabs/a/arcade_fire/no_cars_go_btab.html ]
-----------------------------------------------------------------|
-----------------3-3-3-3-3-3-3-3-6-6-6-6-6-6-6-6-6-6-6-6-6-6-6-6-|
-4-4-4-4-4-4-4-4-------------------------------------------------|
-----------------------------------------------------------------|

-----------------------------------------------------------------|
-----------------3-3-3-3-3-3-3-3-6-6-6-6-6-6-6-6-6-6-6-6-6-6-6-6-|
-4-4-4-4-4-4-4-4-------------------------------------------------|
-----------------------------------------------------------------|

-----------------------------------------------------------------|
-8-8-8-8-8-8-8-8-3-3-3-3-3-3-3-3---------------------------------|
---------------------------------4-4-4-4-4-4-4-4-4-4-4-4-4-4-4-4-|
-----------------------------------------------------------------|

-----------------------------------------------------------------|
-8-8-8-8-8-8-8-8-3-3-3-3-3-3-3-3---------------------------------|
---------------------------------4-4-4-4-4-4-4-4-4-4-4-4-44-33---|
-----------------------------------------------------------------|

-----------3-3-|
---------------|
-1-1-1-1-1-----|
---------------| x4

then........................

-----------------------------------------------------------------|
-----------------3-3-3-3-3-3-3-3-6-6-6-6-6-6-6-6-6-6-6-6-6-6-6-6-|
-4-4-4-4-4-4-4-4-------------------------------------------------|
-----------------------------------------------------------------|

-----------------------------------------------------------------|
-----------------3-3-3-3-3-3-3-3-6-6-6-6-6-6-6-6-6-6-6-6-6-6-6-6-|
-4-4-4-4-4-4-4-4-------------------------------------------------|
-----------------------------------------------------------------|

bass stops for 16 bars

-------------------------------------------------------------------|
-------------------------------------------------------------------|
-4444444444444444444444444444444/11-11-11-11-11-11-11-11-11-11etc--|
-------------------------------------------------------------------|

OUTRO

------6-6------6-6---------------13-13-----------------13-13--------|
--------------------------------------------------------------------|
-44444----44444----11-11-11-11-11--------11-11-11-11-11-------------|
--------------------------------------------------------------------|

------8-8------8-8---------------13-13-----------------13-13--------|
--------------------------------------------------------------------|
-66666----66666----11-11-11-11-11--------11-11-11-11-11-------------|
--------------------------------------------------------------------|

For the outro chord sequence it goes 8 bars, then 7, Repeat this until
the end.