Arcade Fire - Neighborhood 3 Power Out Chords & Tabs

 

Neighborhood 3 Power Out Chords & Tabs

Arcade Fire Chords & Tabs

Version: 2 Type: Tab 0 ratings
1 star 2 stars 3 stars 4 stars 5 stars
comments

Neighborhood 3 Power Out Tab

   
---------------------------------------------------------------------------

THE ARCADE FIRE
NEIGHBORHOOD #3 (POWER OUT)

tabbed by ALEXANDER
mail : ael_x AT caramail DOT com

*********************************************
********** CORRECT TUNING VERSION ***********
*********************************************

Tuning :
D A D F A E

---------------------------------------------------------------------------


Intro/
CHORUS

         v v v v
E|---------------------------------|---------------------------------------|
A|-------15-15-15--------15-15-15--|---------------------------------------|
F|-------12-12-12--------12-12-12--|--------4--4-4---------4--4-4----------|
D|-12-12-12-12-12--12-12-12-12-12--|-3--3-3-3--3-3--3--3-3-3--3-3----------|
A|-0>-0>>>let ring-0>-0>>>---------|-3--3-3-3--3-3--3--3-3-3--3-3----------|
D|-0>-0>>>---------0>-0>>>---------|-3--3-3-3--3-3--3--3-3-3--3-3----------|


Verse 1
                  v v v v v v                         v v v v v v
E|---------------------------------|---------------------------------------|
A|-16--16--16--16-19-19-19-19------|---16--16--16--16-19-19-19-19----------|
F|-16--16--16--16-16-16-16-16---2x-|---16--16--16--16-16-16-16-16------2x--|
D|---------------------------------|---16--16--16--16-16-16-16-16----------|
A|-19--19--19--19-19-19-19-19------|---17--17--17--17-17-17-17-17----------|
D|---------------------------------|---------------------------------------|
I woke up with the power out, not really something to shout about.
Ice has covered up my parents hands don't have any dreams don't have any plans.


Verse2
(Bass enters)
               v v v v v v                       v v v v v v
E|--------------------------------|----------------------------------------|
A|-12-12-12-12-15-15-15-15--------|---12-12-12-12-15-15-15-15--------------|
F|-12-12-12-12-12-12-12-12-----2X-|---12-12-12-12-12-12-12-12------2X------|
D|-12-12-12-12-12-12-12-12--------|---14-14-14-14-14-14-14-14--------------|
A|--------------------------------|---15-15-15-15-15-15-15-15--------------|
D|--------------------------------|----------------------------------------|
I went out into the night,  went out to find some light.
Kids are swingin' from the power lines, nobody's home, so nobody minds.


(Bass stops)
Verse 1 (alt :  do not add 19's)
[ Tab from: http://www.guitartabs.cc/tabs/a/arcade_fire/neighborhood_3_power_out_tab_ver_2.html ]
E|---------------------------------|---------------------------------------|
A|-16--16--16--16-19-19-19-19------|---16--16--16--16-19-19-19-19----------|
F|-16--16--16--16-16-16-16-16---2x-|---16--16--16--16-16-16-16-16------2x--|
D|---------------------------------|---16--16--16--16-16-16-16-16----------|
A|-19--19--19--19-19-19-19-19------|---17--17--17--17-17-17-17-17----------|
D|---------------------------------|---------------------------------------|

I woke up on the darkest night, neighbors all were shoutin' that they found the light.
("We found the light")
Shadows jumpin' all over my walls some of them big, some of them small.


Verse2
(Bass enters)
               v v v v v v                       v v v v v v
E|--------------------------------|----------------------------------------|
A|-12-12-12-12-15-15-15-15--------|---12-12-12-12-15-15-15-15--------------|
F|-12-12-12-12-12-12-12-12-----2X-|---12-12-12-12-12-12-12-12------2X------|
D|-12-12-12-12-12-12-12-12--------|---14-14-14-14-14-14-14-14--------------|
A|--------------------------------|---15-15-15-15-15-15-15-15--------------|
D|--------------------------------|----------------------------------------|

I went out into the night. I went out to pick a fight with anyone.
Light a candle for the kids, Jesus Christ don't keep it hid!

Just after "hid" :

CHORUS
         v v v v
E|---------------------------------|---------------------------------------|
A|-------15-15-15--------15-15-15--|---------------------------------------|
F|-------12-12-12--------12-12-12--|--------4--4-4---------4--4-4----------|
D|-12-12-12-12-12--12-12-12-12-12--|-3--3-3-3--3-3--3--3-3-3--3-3----------|
A|-0>-0>>>let ring-0>-0>>>---------|-3--3-3-3--3-3--3--3-3-3--3-3----------|
D|-0>-0>>>---------0>-0>>>---------|-3--3-3-3--3-3--3--3-3-3--3-3----------|

then Bass does its riff thing

then repeat parts...

then, Bridge (2'32")

E|-------------------------------------------------------------------------|
A|-------------------------------------------------------------------------|
F|------------4----4-------------------------------------------------------|
D|--5----5----3----3----8----8----7----7----------2x-----------------------|
A|--5----5----3----3----8----8----7----7-----------------------------------|
D|--5----5----3----3----8----8----7----7-----------------------------------|
And the power's down in the heart of man,
take it from your heart put in your hand.
And there's something wrong in the heart of man,
you take it from your heart and put it in your hand!


E|----------|
A|----4-----|
F|----4-----|
D|----6-----|
A|----7-----|
D|----------|
What's the plan?


then slide UP before Verse2 (1x) and then CHORUS
repeat parts...

and end on D :
E|-----
A|--15-
F|--12-
D|--12-
A|--0--
D|--0--


---------------------------------------------------------------------------
Tabbed by ALEXANDER. : ael_x AT caramail DOT com
---------------------------------------------------------------------------
Comments