Arcade Fire - Neighborhood 2 Laika Chords & Tabs

 

Neighborhood 2 Laika Chords & Tabs

Arcade Fire Chords & Tabs

Version: 1 Type: Tab 0 ratings
1 star 2 stars 3 stars 4 stars 5 stars
comments

Neighborhood 2 Laika Tab

   
ARCADE FIRE
NEIGHBORHOOD #2 (LAIKA)

FOR SOLO (ACOUSTIC) GUITAR

(Note: for the Intro/Verse and the Bridge, there is no rhythm indicted here so just
strum however you like; it should not be difficult at all to figure it out. Because I
felt the chorus was more tricky, however, I tabbed out exactly what you should play.
Notes in brackets are optional. Enjoy!)

  -Steve


(INTRO/VERSE)

   Bm          Fm          Bm                  Fm
E----7-----------5-----------7-------9-7---------5---------------------|
B--7-----------7-----------7---------7---------7-----------------------|
G--7-----------6-----------7---------7---------6-----------------------|
D--9-----------7-----------9---------9---------7-----------------------|
A-(9)---------(0)---------(9)-------(9)-------(0)----------------------|
E-(7)---------------------(7)-------(7)--------------------------------|

(CHORUS)

           Our     Mo ---- ther    Should -------- a
   G                               D
E--------------------------0-0-0-0-5-5-5-5-5-5-5-5-2-2-2-2-2-2-2-2-----|
B----------2-2-2-2-3-3-3-3-0-0-0-0-7-7-7-7-7-7-7-7-3-3-3-3-3-3-3-3-----|
G----------0-0-0-0-0-0-0-0-0-0-0-0-7-7-7-7-7-7-7-7-2-2-2-2-2-2-2-2-----|
D----------x-x-x-x-x-x-x-x-0-0-0-0-0-0-0-0-0-0-0-0-0-0-0-0-0-0-0-0-----|
A--2-2-2-2-2-2-2-2-2-2-2-2---------------------------------------------|
E--3-3-3-3-3-3-3-3-3-3-3-3---------------------------------------------|

           Just    Named   You     Lai ----------- ka
   G                               D               B
E----------------------------------------------------------------------|
B----------2-2-2-2-3-3-3-3---------3-3-3-3-3-3-3-3---------------------|
G----------0-0-0-0-0-0-0-0-2-2-2-2-2-2-2-2-2-2-2-2-4-4-4-4-4-4-4-4-----|
D----------x-x-x-x-x-x-x-x-x-x-x-x-0-0-0-0-0-0-0-0-4-4-4-4-4-4-4-4-----|
A--2-2-2-2-2-2-2-2-2-2-2-2-2-2-2-2-----------------2-2-2-2-2-2-2-2-----|
E--3-3-3-3-3-3-3-3-3-3-3-3-3-3-3-3-------------------------------------|
[ Tab from: http://www.guitartabs.cc/tabs/a/arcade_fire/neighborhood_2_laika_tab.html ]
           It's    For     Your    Own             Good
   G                               D
E----------------------------------5-5-5-5-5-5-5-5-2-2-2-2-2-2-2-2-----|
B----------3-3-3-3-2-2-2-2-3-3-3-3-7-7-7-7-7-7-7-7-3-3-3-3-3-3-3-3-----|
G----------0-0-0-0-0-0-0-0-0-0-0-0-7-7-7-7-7-7-7-7-2-2-2-2-2-2-2-2-----|
D----------x-x-x-x-x-x-x-x-x-x-x-x-0-0-0-0-0-0-0-0-0-0-0-0-0-0-0-0-----|
A--2-2-2-2-2-2-2-2-2-2-2-2-2-2-2-2-------------------------------------|
E--3-3-3-3-3-3-3-3-3-3-3-3-3-3-3-3-------------------------------------|

           It's    For     The     Neighbor ------ Hood
   G                               D               B
E----------------------------------------------------------------------|
B----------2-2-2-2-3-3-3-3---------3-3-3-3-3-3-3-3---------------------|
G----------0-0-0-0-0-0-0-0-2-2-2-2-2-2-2-2-2-2-2-2-4-4-4-4-4-4-4-4-----|
D----------x-x-x-x-x-x-x-x-x-x-x-x-0-0-0-0-0-0-0-0-4-4-4-4-4-4-4-4-----|
A--2-2-2-2-2-2-2-2-2-2-2-2-2-2-2-2-----------------2-2-2-2-2-2-2-2-----|
E--3-3-3-3-3-3-3-3-3-3-3-3-3-3-3-3-------------------------------------|

(BRIDGE)

   When Daddy Comes Home     You Always Start A Fight
   Em               A         D         D/C#     B
E--0--------------------------------------------------------------------|
B--0-----------3----2---------3---------3-------------------------------|
G--0-----------0----2---------2---------2--------4----------------------|
D--2-----------2----2---------0---------0--------4----------------------|
A--2-----------2----0-------------------4--------2----------------------|
E--0-----------0--------------------------------------------------------|

   So the ...  Can  Dance   In The Po-lice Disco   Light
   Em               A
E--0---------------------------7------5----7-9-7---5--------------------|
B--0-----------3----2-------7------7-------7---7---7--------------------|
G--0-----------0----2-------7------6-------7---7---6--------------------|
D--2-----------2----2-------9------7-------9---9---7--------------------|
A--2-----------2----0------(9)----(0)-----(9)-(9)-(0)-------------------|
E--0-----------0-----------(7)------------(7)-(7)-----------------------|

   Look At 'em Dance!
                      Bm
E---------------------7------------------------------------------------|
B---------------------7------------------------------------------------|
G---------------------7------------------------------------------------|
D---------------------9------------------------------------------------|
A---------------------9------------------------------------------------|
E---------------------7------------------------------------------------|
Comments