Arcade Fire - Neighborhood 1 Tunnels Chords & Tabs

 

Neighborhood 1 Tunnels Chords & Tabs

Arcade Fire Chords & Tabs

Version: 2 Type: Tab 0 ratings
1 star 2 stars 3 stars 4 stars 5 stars
comments

Neighborhood 1 Tunnels Tab

   
ARCADE FIRE
NEIGHBORHOOD #1 (TUNNELS)


    -Steve (steveseligman@hotmail.com)

(INTRO RIFF)
                                 hammer on  pull off
   Fmaj7                              / \   / \
E--------0-1-0------------------0-1-0------------------------------|
B------1----------------------1-----------1------------------------|
G----2----------------------2---------0-2---2-0--------------------|
D--3----------------------3----------------------------------------|
A------------------------------------------------------------------|
E------------------------------------------------------------------|

(VERSE)

   And If The  Snow Bur-ies  My, My  Neighbor - hood
   F   Am      F    Dm           A   Bb         F5
E------------------------------------------------------------------|
B------1-----------------------------------------------------------|
G--2---2-----------------------------------------------------------|
D--3---2---2---3----3---2----0---2---3----0------------------------|
A--3---0---0---3----0---0----0---0---1----------3------------------|
E--1-----------1--------------------------------1------------------|

(INTRO RIFF)

   Fmaj7
E--------0-1-0------------------0-1-0------------------------------|
B------1----------------------1-----------1------------------------|
G----2----------------------2---------0-2---2-0--------------------|
D--3----------------------3----------------------------------------|
A------------------------------------------------------------------|
E------------------------------------------------------------------|

(VERSE)

  And If My Parents Are Crying   Then I'll Dig A Tun - nel
   F        Am          F        Am(add6)  Am          D5
E--------------------------------1----1----0---0-0-----------------|
B-----------1--------------------1---------1-----------3-----------|
G--2--2--2--2--------------------2---------2-----------2-----------|
D-----3-----2-------2---3--------2---------2-----------0-----------|
A-----3-----0-------0---3--------0---------0-----------------------|
E-----1-----------------1------------------------------------------|


  From My  Win - dow   To Yours       Yeah, A  Tun - nel
       A   Bb          F           Am(add6) Am       D5
E--0---0---0-----1--------------------1-----0--0-------------------|
B------2---------3-----1--1-----------1-----1--------3-------------|
G------2---------3--------2-----------2-----2--------2-------------|
D------2---------3--------3-----------2-----2--------0-------------|
A------0---------1--------3-----------0-----0----------------------|
E-------------------------1----------------------------------------|


  From My  Win - dow   To
       A   Bb          F
E--0---0---0-----1-------------------------------------------------|
B------2---------3-----1-------------------------------------------|
G------2---------3-------------------------------------------------|
D------2---------3-------------------------------------------------|
A------0---------1-------------------------------------------------|
E------------------------------------------------------------------|

(BRIDGE - Not exactly what you hear on the CD but close enough in my view)

   Yours
   F
E------------------------------------------------------------------|
B--1-----------------1-----1-----------------1---------------------|
G--2--2-----2-----2--2--2--2--2-----2-----2--2--2------------------|
D--3-----------------3-----3-----------------3---------------------|
A--3-----------------3-----3-----------------3---------------------|
E--1-----1-----1-----1-----1-----1-----1-----1---------------------|

(VERSE)

   You Climb Out The Chimney   And  Meet Me   In  The Mid - dle
   F   Am            F              Am(add6)  Am            D5
E------------------------------1----1----1----0---0---0------------|
B------1----------------------------1---------1-------------3------|
G--2---2----------------------------2---------2-------------2------|
D--3---2-----2-------3--------------2---------2-------------0------|
A--3---0-----0-------3--------------0---------0--------------------|
E--1-----------------1---------------------------------------------|


   The Mid - dle   Of    The Town
       A           Bb        F
E--0---0-----0-----1-----------------------------------------------|
B------2-----------3-----1---1-------------------------------------|
G------2-----------3---------2-------------------------------------|
D------2-----------3---------3-------------------------------------|
A------0-----------1---------3-------------------------------------|
E----------------------------1-------------------------------------|


   And Since There's No One Else A - round
       F             Am     Am7      F
E--5---5-----5-------5--5---3----0---1-----------------------------|
B------6-------------5------1--------1-----------------------------|
G------5-------------5------2--------2-----------------------------|
D------7-------------7------2--------3-----------------------------|
A------8-------------7------0--------3-----------------------------|
E--------------------5---------------1-----------------------------|


   We Let Our Hair Grow Long     And For - get All We Used To Know
 Am(add6) Am            D5                 A          Bb      F
E--1--1---0---0----0-------------0---0-----0---0---0--1------------|
B--1------1-------------3------------------2----------3----1--1----|
G--2------2-------------2------------------2----------3-------2----|
D--2------2-------------0------------------2----------3-------3----|
A--0------0--------------------------------0----------1-------3----|
E-------------------------------------------------------------1----|


   Then Our Skins Get Thick - er    From Liv - ing Out In The
 Am(add6)   Am                D5         A             Bb
E--1----1---0-----0---0-------------0----0-----0---0---1--1--------|
B--1--------1-----------------3----------2-----2---2---3--3--------|
G--2--------2-----------------2----------2-----2---2---3--3--------|
D--2--------2-----------------0----------2-----2---2---3--3--------|
A--0--------0----------------------------0-----0---0---1--1--------|
E------------------------------------------------------------------|

(CHORUS)

   Snow    You Change ...  Lead
   F                       Am
E--1-1-1-1-1-1-1-1-1-1-1-1-5-5-5-5---------------------------------|
B--1-1-1-1-1-1-1-1-1-1-1-1-5-5-5-5---------------------------------|
G--2-2-2-2-2-2-2-2-2-2-2-2-5-5-5-5---------------------------------|
D--3-3-3-3-3-3-3-3-3-3-3-3-7-7-7-7---------------------------------|
A--3-3-3-3-3-3-3-3-3-3-3-3-----------------------------------------|
E--1-1-1-1-1-1-1-1-1-1-1-1-----------------------------------------|


   Sleeping In My          Head
   F                       Am
E--1-1-1-1-1-1-1-1-1-1-1-1-5-5-5-5---------------------------------|
B--1-1-1-1-1-1-1-1-1-1-1-1-5-5-5-5---------------------------------|
G--2-2-2-2-2-2-2-2-2-2-2-2-5-5-5-5---------------------------------|
D--3-3-3-3-3-3-3-3-3-3-3-3-7-7-7-7---------------------------------|
A--3-3-3-3-3-3-3-3-3-3-3-3-----------------------------------------|
E--1-1-1-1-1-1-1-1-1-1-1-1-----------------------------------------|


   As The Day              Grows Dim
   Dm                      Am
E--1-1-1-1-1-1-1-1-1-1-1-1-5-5-5-5---------------------------------|
B--3-3-3-3-3-3-3-3-3-3-3-3-5-5-5-5---------------------------------|
G--2-2-2-2-2-2-2-2-2-2-2-2-5-5-5-5---------------------------------|
D--0-0-0-0-0-0-0-0-0-0-0-0-7-7-7-7---------------------------------|
A------------------------------------------------------------------|
E------------------------------------------------------------------|

[ Tab from: http://www.guitartabs.cc/tabs/a/arcade_fire/neighborhood_1_tunnels_tab_ver_2.html ]
   I Hear You Sing A       Golden
   Dm                      Am
E--1-1-1-1-1-1-1-1-1-1-1-1-5-5-5-5---------------------------------|
B--3-3-3-3-3-3-3-3-3-3-3-3-5-5-5-5---------------------------------|
G--2-2-2-2-2-2-2-2-2-2-2-2-5-5-5-5---------------------------------|
D--0-0-0-0-0-0-0-0-0-0-0-0-7-7-7-7---------------------------------|
A------------------------------------------------------------------|
E------------------------------------------------------------------|


   Hymn
   C               F               C       F       Gm
E--0-0-0-0-0-0-0-0-1-1-1-1-1-1-1-1-3-3-3-3-5-5-5-5-6-6-6-6-6-6-6-6-|
B--1-1-1-1-1-1-1-1-1-1-1-1-1-1-1-1-1-1-1-1-6-6-6-6-8-8-8-8-8-8-8-8-|
G--0-0-0-0-0-0-0-0-2-2-2-2-2-2-2-2-0-0-0-0-5-5-5-5-7-7-7-7-7-7-7-7-|
D--2-2-2-2-2-2-2-2-3-3-3-3-3-3-3-3-2-2-2-2-------------------------|
A--3-3-3-3-3-3-3-3-3-3-3-3-3-3-3-3-3-3-3-3-------------------------|
E------------------1-1-1-1-1-1-1-1---------------------------------|

(INTRO RIFF)

   Fmaj7
E--------0-1-0------------------0-1-0------------------------------|
B------1----------------------1-----------1------------------------|
G----2----------------------2---------0-2---2-0--------------------|
D--3----------------------3----------------------------------------|
A------------------------------------------------------------------|
E------------------------------------------------------------------|

(VERSE)

   Then We Tried To Name Our Bab - ies
   F       Am       Am7            F
E--5----5--5-----5--3----3---3-----1-------------------------------|
B--6-------5--------1--------1-----1-------------------------------|
G--5-------5--------2--------2-----2-------------------------------|
D--7-------7--------2--------2-----3-------------------------------|
A--8-------7--------0--------0-----3-------------------------------|
E----------5-----------------------1-------------------------------|


   But We For - got All The Names That, The Names We Used To Know
       Am(add6) Am                D5        A        Bb      F
E--1---1--1-----0---0---0---0-----------5---5-----5--6----6--1-----|
B------1--------1-----------1-----3---------5--------6-------1-----|
G------2--------2-----------2-----2---------6--------7-------2-----|
D------2--------2-----------2-----0---------7--------8-------3-----|
A------0--------0-----------0---------------7--------8-------3-----|
E-------------------------------------------5--------6-------1-----|

(INTRO RIFF AGAIN)

  Fmaj7
E--------0-1-0------------------0-1-0------------------------------|
B------1----------------------1-----------1------------------------|
G----2----------------------2---------0-2---2-0--------------------|
D--3----------------------3----------------------------------------|
A------------------------------------------------------------------|
E------------------------------------------------------------------|

(VERSE)

   But Some - times  We Re - mem - ber Our Bed - rooms
   F                 Am7                         F
E--5---5------5------3--3----3-----3---3---3-----1-----------------|
B------6-------------1-------1-------------1-----1-----------------|
G------5-------------2-------2-------------2-----2-----------------|
D------7-------------2-------2-------------2-----3-----------------|
A------8-------------0-------0-------------0-----3-----------------|
E------------------------------------------------1-----------------|


   And Our  Parents  Bed - rooms    And The   Bed - rooms  Of Our
   Am(add6) Am7      D5                       A            Bb
E--1---1----3---3----5-----5--------5---5-----5-----5------6--6----|
B--1--------1--------3------------------------5------------6-------|
G--2--------2--------2------------------------6------------7-------|
D--2--------2--------0------------------------7------------8-------|
A--0--------0---------------------------------7------------8-------|
E---------------------------------------------5------------6-------|


   Friends        Then We  Think Of Our Parents
   F              Am(add6) Am           D5
E--1--------------1----1---0-----0--0------------------------------|
B--1--------------1--------1------------3--------------------------|
G--2--------------2--------2------------2--------------------------|
D--3--------------2--------2------------0--------------------------|
A--3--------------0--------0---------------------------------------|
E--1---------------------------------------------------------------|


  Well What E - ver Happen - ed To
       A            Bb
E-5----5----5---5---6--------6--6----------------------------------|
B------5----5---5---6--------6--6----------------------------------|
G------6----6---6---7--------7--7----------------------------------|
D------7----7---7---8--------8--8----------------------------------|
A------7----7---7---8--------8--8----------------------------------|
E------5----5---5---6--------6--6----------------------------------|

(CHORUS)
   Them?!  You Change ...  Lead
   F                       Am
E--1-1-1-1-1-1-1-1-1-1-1-1-5-5-5-5---------------------------------|
B--1-1-1-1-1-1-1-1-1-1-1-1-5-5-5-5---------------------------------|
G--2-2-2-2-2-2-2-2-2-2-2-2-5-5-5-5---------------------------------|
D--3-3-3-3-3-3-3-3-3-3-3-3-7-7-7-7---------------------------------|
A--3-3-3-3-3-3-3-3-3-3-3-3-----------------------------------------|
E--1-1-1-1-1-1-1-1-1-1-1-1-----------------------------------------|


   Sleeping In My          Head To Gold
   F                       Am
E--1-1-1-1-1-1-1-1-1-1-1-1-5-5-5-5---------------------------------|
B--1-1-1-1-1-1-1-1-1-1-1-1-5-5-5-5---------------------------------|
G--2-2-2-2-2-2-2-2-2-2-2-2-5-5-5-5---------------------------------|
D--3-3-3-3-3-3-3-3-3-3-3-3-7-7-7-7---------------------------------|
A--3-3-3-3-3-3-3-3-3-3-3-3-----------------------------------------|
E--1-1-1-1-1-1-1-1-1-1-1-1-----------------------------------------|


   As The Day              Grows Dim
   Dm                      Am
E--1-1-1-1-1-1-1-1-1-1-1-1-5-5-5-5---------------------------------|
B--3-3-3-3-3-3-3-3-3-3-3-3-5-5-5-5---------------------------------|
G--2-2-2-2-2-2-2-2-2-2-2-2-5-5-5-5---------------------------------|
D--0-0-0-0-0-0-0-0-0-0-0-0-7-7-7-7---------------------------------|
A------------------------------------------------------------------|
E------------------------------------------------------------------|


   I Hear You Sing A       Golden
   Dm                      Am
E--1-1-1-1-1-1-1-1-1-1-1-1-5-5-5-5---------------------------------|
B--3-3-3-3-3-3-3-3-3-3-3-3-5-5-5-5---------------------------------|
G--2-2-2-2-2-2-2-2-2-2-2-2-5-5-5-5---------------------------------|
D--0-0-0-0-0-0-0-0-0-0-0-0-7-7-7-7---------------------------------|
A------------------------------------------------------------------|
E------------------------------------------------------------------|


   Hymn
   C               F               C       F
E--0-0-0-0-0-0-0-0-1-1-1-1-1-1-1-1-3-3-3-3-5-5-5-5-----------------|
B--1-1-1-1-1-1-1-1-1-1-1-1-1-1-1-1-1-1-1-1-6-6-6-6-----------------|
G--0-0-0-0-0-0-0-0-2-2-2-2-2-2-2-2-0-0-0-0-5-5-5-5-----------------|
D--2-2-2-2-2-2-2-2-3-3-3-3-3-3-3-3-2-2-2-2-------------------------|
A--3-3-3-3-3-3-3-3-3-3-3-3-3-3-3-3-3-3-3-3-------------------------|
E------------------1-1-1-1-1-1-1-1---------------------------------|


   Gm
E--6-6-6-6-6-6-6-6-6-6-6-6-6-6-6-6---------------------------------|
B--8-8-8-8-8-8-8-8-8-8-8-8-8-8-8-8---------------------------------|
G--7-7-7-7-7-7-7-7-7-7-7-7-7-7-7-7---------------------------------|
D------------------------------------------------------------------|
A------------------------------------------------------------------|
E------------------------------------------------------------------|


REPEAT CHORUS AND INTRO RIFFS, AD LIB AS YOU LIKE. END ON F.

E-----
B-----
G--2--
D--3--
A--3--
E--1--
Comments