Arcade Fire - Crown Of Love Chords & Tabs

 

Crown Of Love Chords & Tabs

Arcade Fire Chords & Tabs

Version: 2 Type: Tab 0 ratings
1 star 2 stars 3 stars 4 stars 5 stars
comments

Crown Of Love Tab

   
ARCADE FIRE
CROWN OF LOVE

Another great song by the Arcade Fire. Thanks to "Perry The Almighty Rat" for the 
post of this song.

 -Steve (steveseligman@hotmail.com)


(VERSE)
E---------------------------------------------------------------------|
B---------------------------------------------------------------------|
G---------------------------------------------------------------------|
D--6-6---5------------------------------------------------------------|
A---------------------------------------------------------------------|
E---------------------------------------------------------------------|


   Eb                      Abmaj7
E---------------------------------------------------------------------|
B---------------------------------------------------------------------|
G------3-----3-----3-----3--------------------------------------------|
D----5-----5-----5-----5-----5-----5-----5-----5----------------------|
A--6-----6-----6-----6---------6-----6-----6-----6--------------------|
E--------------------------4-----4-----4-----4------------------------|


   Eb                      Bdim
E---------------------------------------------------------------------|
B---------------------------------------------------------------------|
G------3-----3-----3-----3---0-----0-----0-----0----------------------|
D----1-----1-----1-----1-------3-----3-----3-----3--------------------|
A--1-----1-----1-----1-----2-----2-----2-----2------------------------|
E---------------------------------------------------------------------|


   Eb                      Abmaj7
E---------------------------------------------------------------------|
B---------------------------------------------------------------------|
G------3-----3-----3-----3--------------------------------------------|
D----5-----5-----5-----5-----5-----5-----5-----5----------------------|
A--6-----6-----6-----6---------6-----6-----6-----6--------------------|
E--------------------------4-----4-----4-----4------------------------|


Eb                       Bdim           If you still
E---------------------------------------------------------------------|
B------------------------------------------3-3---4--------------------|
G------3-----3-----3-----3---0-----0-----0-----0----------------------|
D----1-----1-----1-----1-------3-----3-----3-----3--------------------|
A--1-----1-----1-----1-----2-----2-----2-----2------------------------|
E---------------------------------------------------------------------|
[ Tab from: http://www.guitartabs.cc/tabs/a/arcade_fire/crown_of_love_tab_ver_2.html ]
(CHORUS)
   Cm                         Ab(b5) Ab
   Want  me     Please   For - give  me     The  Crown  of
E---------------------------------------------------------------------|
B--3------------3--------4-----3--------------------------------------|
G--5-----5------5--------------5-----5------5----5--------------------|
D--5-----5------5--------------6-----6-----------6------8-------------|
A--3-----3------3--------------------6-----------6--------------------|
E-----------------------------(4)----4-----------4--------------------|

  Eb                        Bb
  Love     Has  Fall -- en  From   Me         If  You  Still
E---------------------------------------------------------------------|
B---------------------------------------------3---3----4--------------|
G-------------------------------------------------3-------------------|
D--8-------5----5-------6---5------3--------------3-------------------|
A--6------------6------------------1--------------1-------------------|
E--6------------6-----------6-----------------------------------------|


   Want  Me     Please   For - give  Me     Be - cause  The
E---------------------------------------------------------------------|
B--3------------3--------4-----3--------------------------------------|
G--5-----5------5--------------5-----5------5----5--------------------|
D--5-----5------5--------------6-----6-----------6------8-------------|
A--3-----3------3--------------------6-----------6--------------------|
E-----------------------------(4)----4-----------4--------------------|


   Spark   Is   Not     With - in  Me
E---------------------------------------------------------------------|
B---------------------------------------------------------------------|
G----------------------------------------------3-3-3-3-3-3-3----------|
E--8-------5----5-------6------5---3-----------3-3-3-3-3-3-3----------|
A--6------------6------------------1-----------1-1-1-1-1-1-1----------|
E--6------------6--------------6--------------------------------------|

(CHORUS LEADING INTO THE OUTRO)
E---------------------------------------------------------------------|
B--3------------3--------4-----3--------------------------------------|
G--5-----5------5--------------5-----5------5----5--------------------|
D--5-----5------5--------------6-----6-----------6------8-------------|
A--3-----3------3--------------------6-----------6--------------------|
E-----------------------------(4)----4-----------4--------------------|


                                   B(add6)
E---------------------------------------------------------------------|
B---------------------------------------------------------------------|
G---------------------------------------------------------------------|
E--8-------5----5--------6-----5---6----------------------------------|
A--6------------6------------------6----------------------------------|
E--6------------6--------------6---7----------------------------------|


(OUTRO)
   Eb   B(add6)
E---------------------------------------------------------------------|
B--8----9-------------------------------------------------------------|
G--8----8-------------------------------------------------------------|
D--8----9-------------------------------------------------------------|
A--6----x-------------------------------------------------------------|
E-------7-------------------------------------------------------------|
Comments