Arcade Fire - Crown Of Love Chords & Tabs

 

Crown Of Love Chords & Tabs

Arcade Fire Chords & Tabs

Version: 1 Type: Tab 0 ratings
1 star 2 stars 3 stars 4 stars 5 stars
comments

Crown Of Love Tab

   
The Arcade Fire - Crown of Love Tabs
Tabbed by Perry The Almighty Rat
Any questions, please e-mail me at almightycringe@comcast.net


Intro:
--------------|
--------------|
--------------|
---6-6--5-----|
--------------|
--------------|
They say it

Verse:

------------------|
------------------|
----3--3--3--3----|
---5--5--5--5-----|
--6--6--6--6------|
------------------|
Fades if you

------------------|
------------------|
------------------|
--5--5--5--5------|
---6--6--6--6-----|
-4---4--4--4------|
Let it, love was

------------------|
------------------|
------------------|
---8--8--8--8-----|
--6--6--6-6------|
-6--6--6--6-------|
Made to for-

------------------|
------------------|
------------------|
--5---5---5--5----|
---8---8---8--8---|
-7---7--7---7--7-|
Get it.


I carved your name
Across my eyelids,
You pray for rain
I pray for blindness.


Chorus:
		Cm		G#
If you still want me, please forgive me,
		D#		A#
the crown of love has fallen from me.
		Cm		G#
If you still want me, please forgive me,
		D#		A#-----
because the spark is not within me.


Line Break:
I snuffed it
------------------|
------------------|
----3--3--3--3----|
---5--5--5--5-----|
--6--6--6--6------|
------------------|
Out before my
[ Tab from: http://www.guitartabs.cc/tabs/a/arcade_fire/crown_of_love_tab.html ]
------------------|
------------------|
------------------|
--5--5--5--5------|
---6--6--6--6-----|
-4---4--4--4------|
mom walked in my bed

------------------|
------------------|
----3--3--3--3----|
---5--5--5--5-----|
--6--6--6--6------|
------------------|
room

Verse 2:
The only thing that you keep changin'
is your name, my love keeps growin'
still the same, just like a cancer,
and you won't give me a straight answer!

Chorus:
If you still want me, please forgive me,
the crown of love has fallen from me.
If you still want me please forgive me
because your hands are not upon me.

Line Break:
I shrugged them off before my mom walked in my bedroom.

Verse 3:
The pains of love, and they keep growin',
in my heart there's flowers growin'
on the grave of our old love,
since you gave me a straight answer.

Chorus:
		Cm		G#
If you still want me, please forgive me,
		D#		A#
the crown of love is not upon me
		Cm		G#
If you still want me, please forgive me,
		D#		B/D#
cause this crown is not within me.
		D#		B/D#
it's not within me, it's not within me.

Outro:
		D#
You gotta be the one,
you gotta be the way,
		B/D#
your name is the only word that I can say

		D#
You gotta be the one,
you gotta be the way,
		B/D#
your name is the only word,
the only word that I can say!

Disco Ending:
D#	B/D#
Comments