Arcade Fire - Cold Wind Chords & Tabs

 

Cold Wind Chords & Tabs

Arcade Fire Chords & Tabs

Version: 1 Type: Tab

Cold Wind Tab

   
-----------------------------------------------------------------------
 		Cold Wind by Arcade Fire
-----------------------------------------------------------------------

TUNING

e   e
b-> a (2 down)
G-> F (2 down)
D   D
a   a
e-> D (2 down)


[ Tab from: http://www.guitartabs.cc/tabs/a/arcade_fire/cold_wind_tab.html ]
e|-------------------------------------------------|
a|--1-----------1-----------1-----------1-----1--0-|
F|-----0-----------0-----------0-----------0-------|
D|--------2-----------2-----------2----------------|
A|-----------3-----------3-----------3-------------|
D|-(3)---------(3)---------(3)---------(3)---------|



e|--1-----------1----------(12)--------(10)--------|
a|-----0-----------0--------8--8--------8--8-------|
F|--------0-----------0-----------9-----------9----|
D|-----------2-----------2-----------8-----------8-|
A|-------------------------------------------------|
D|-(0)---------(0)---------(8)---------(8)---------|



e|-(7)---------(8)---------(5)---------(6)---------|
a|--7--7--------7--7--------5--5--------5--5-------|
F|--------7-----------7-----------5-----------5----|
D|-----------7-----------7-----------5-----------5-|
A|-------------------------------------------------|
D|-(7)---------(7)---------(5)---------(5)---------|