Arcade Fire - City With No Children Chords & Tabs

 

City With No Children Chords & Tabs

Arcade Fire Chords & Tabs

Version: 1 Type: Bass Tab

City With No Children Bass Tab

   
This is my first tab, so if anyone wants to post with any corrections, feel free.

Standard tuning: EADG

(Note: 14 represents fourteen, not one and four. 11 represents eleven)

/ = slide

main riff
G-----------------------------|
D-----------------------------|
A-9-9-9/14-9/14-1414-9/14-9-9-|
E-----------------------------|

verse
G----------------------------------------------------------------|
D----------------------------------------------------------------|
A-9-9-9-9-9-9-9-9------9-9-9-9-9---------------6-6-6/11-11-11-11-|
E-----------------7-7-7---------9-9-9-9-7-7-7-7------------------|
[ Tab from: http://www.guitartabs.cc/tabs/a/arcade_fire/city_with_no_children_btab.html ]
Chorus#1
G--------------------------------|
D--------------------------------|
A-9-9-9-9-9-9-9-9--------9-9-9-9-|
E-----------------7-7-7-7--------|

Chorus#2
G-----------------------------------|
D-----------------------------------|
A----------------6-6-6-/11-11-11-11-|
E-9-9-9-9-7-7-7-7-------------------|

Order:
main riff x3
verse x 2
main riff x 2
verse x 2
main riff x 2
verse x 2
main riff x 2
chorus#1 x 3
chorus#2 x 1
main riff x 2
verse x 2
main riff x 1
verse x 2
main riff x 1
chorus#1 x 3
chorus#2 x 1
main riff x 1
chorus#1 x 3
chorus#2 x 1
main riff x 3

Feel free to rate and comment, this is my first tab. Hope you enjoy. Happy bassing. :)