Arcade - Cry No More Chords & Tabs

 

Cry No More Chords & Tabs

Arcade Chords & Tabs

Version: 1 Type: Tab 0 ratings
1 star 2 stars 3 stars 4 stars 5 stars
comments

Cry No More Tab

   
----------------------------------------------------------------------------
			     Cry No More - Arcade
----------------------------------------------------------------------------
Tabbed by: 80's Hair Metal (Rob)
Email: rsw88@hotmail.com

Tuning: Standard - E,A,D,G,B,E


Verse

e|-------------------------------------------------------------------------|
B|-------------------------------------------------------------------------|
G|-------------------------------------------------------------------------|
D|--4=---------4=-----------2=-----------2=-----------7=-------------------|
A|--4=---------4=-----------2=-----------2=-----------7=-------------------|
E|--2=---------2=-----------0=-----------0=-----------5=-------------------|


e|-------------------------------------------------------------------------|
B|-------------------------------------------------------------------------|
G|-------------------------------------------------------------------------|
D|--7----9----6----11-----------------7--------9---------------------------|
A|--7----9----6----11-----------------7--------9---------------------------|
E|--5----7----4----9------------------5--------7---------------------------|


Chrous (x3)

e|-------------------------------------------------------------------------|
B|-------------------------------------------------------------------------|
G|-------------------------------------------------------------------------|
D|--11----9--7------------9-----7--6---------------------------------------|
A|--11----9--7------------9-----7--6---------------------------------------|
E|--9-----7--5------------7-----5--4---------------------------------------|


Solo

e|--12------12-------------9-----------------------------------------------|
B|--12b-----12br---10-12~-----10-------------------------------------------|
G|-------------------------------11----------------------------------------|
D|-------------------------------------------------------------------------|
A|------------------------------------------------------------7-9-7--------|
E|------------------------------------/5-7-7b-7br-7b-7br---7b-------7-5-7--|

[ Tab from: http://www.guitartabs.cc/tabs/a/arcade/cry_no_more_tab.html ]
e|-------------------------------------------------------------------------|
B|--------------------------------12--------------------12-----------------|
G|----------------------9--11b------11br--11-9----9-11b----11br--9----9-11b|
D|-------------7-------------------------------11------------------11------|
A|------7-9-7b---7b~-------------------------------------------------------|
E|--7b---------------------------------------------------------------------|


e|-------------------------------------------14b--12-14-12-------12--------|
B|--9-12-12b-12b-12-9---------------12-14-12---------------14-12----14-----|
G|--------------------11-9----9--11b-----------------------------------13--|
D|-------------------------11----------------------------------------------|
A|-------------------------------------------------------------------------|
E|-------------------------------------------------------------------------|


e|--------------------------------------------------------17h19-17h19--19b-|
B|12-14~--------------------------10h12-10h12-12h14-12h14------------------|
G|-------------------------------------------------------------------------|
D|-------------------------------------------------------------------------|
A|------------------------7h9-7h9------------------------------------------|
E|--------5--7p5--7h9-7h9--------------------------------------------------|


e|-19b--19b-19b-19b--19b-19b-19b--19b-19b-19b--19b-19b-21b--21b-21b-21b----|
B|-------------------------------------------------------------------------|
G|-------------------------------------------------------------------------|
D|-------------------------------------------------------------------------|
A|-------------------------------------------------------------------------|
E|-------------------------------------------------------------------------|


e|-21b-21b-21b--21b-21b-21b---21br-----------------------------------------|
B|-------------------------------------------------------------------------|
G|-------------------------------------------------------------------------|
D|-------------------------------------------------------------------------|
A|-------------------------------------------------------------------------|
E|-------------------------------------------------------------------------|


Outro (x6 or more)

e|--12--11-12-9---12--11h12-9---12--11-12-9---12--11h12-11-/14-12-11-------|
B|-------------------------------------------------------------------------|
G|-------------------------------------------------------------------------|
D|-------------------------------------------------------------------------|
A|-------------------------------------------------------------------------|
E|-------------------------------------------------------------------------|




| /   Slide up
| \   Slide down
| B   Bend
| br  Bend Release
| h   Hammer-on
| p   Pull-off
| ~   Vibrato
| +   Harmonic
| x   Mute note
| !   Artificial Harmonic
| =   Let Note Ring Out
============================================================================
Comments