Arab Strap - Shy Retier Chords & Tabs

 

Shy Retier Chords & Tabs

Arab Strap Chords & Tabs

Version: 2 Type: Tab 0 ratings
1 star 2 stars 3 stars 4 stars 5 stars
comments

Shy Retier Tab

shy retier(mark 2)
by joe walker
band: arab strap
album: hug and pint

verse
e-------------0-----------------------7-----5------3---------------
b----------------0----------------------------------------------
g-----------0-------0------------0------0---0---------------------
d---0/h/2--------------2------0--------0---0---------------------   once again just pick 
a----------------------------------------------------------------   what feels right to you
E----------------------------------------------------------------

e-------------0---------------------------------------------------
b---------------0--------------------------0-----------------------
g-----------------0------------------0------------------------------
d-------0-----------0------------0-------0-----0----------------------
a----3----------------------5--------------------------------------
E----------------------------------------------------------------
chorus
e-----------------------0-----------------------------------------
b-----1----/----3---------------------------------------------------
g-----0----/----0---------------------------------------------------
d-----2----/----4-------2--------------------------------------------
a-----3----/----5---------------------------------------------------
E----------------------(0)------------------------------------------
[ Tab from: http://www.guitartabs.cc/tabs/a/arab_strap/shy_retier_tab_ver_2.html ]
key change till the end of song (fsharpe e d)
e----------------------------------------------------------------
b-------------10--------------9-----------------7----------------  picky picky
g----------------------------------------------------------------
d---------11--------------9-----------------7---------------------
a------9-------------7----------------5--------------------------
E----------------------------------------------------------------
 violin 
 e---2/--4/--/5--/7--/5---/4--/5------/5--/4--/2------------------- 
b------------------------------------------------5/--3/--/2--/3----- 
g------------------------------------------------------------------
 d------------------------------------------------------------------- 
a-------------------------------------------------------------------- 
e--------------------------------------------------------------------

 e----2/--/4--/5--/7-/5-/12-/10-/9------------------------------------ 
b-----------------------------------------------------------------
 g-----------------------------------------------------------------
 d---------------------------------------------------------------- 
a---------------------------------------------------------------- 
e----------------------------------------------------------------

(if you want you can pick thourgh csharpe minor in the quite bits *see the first tab*
also for the fills)

 
Comments