Aqualung - Good Times Gonna Come Chords & Tabs

 

Good Times Gonna Come Chords & Tabs

Aqualung Chords & Tabs

Version: 1 Type: Tab 0 ratings
1 star 2 stars 3 stars 4 stars 5 stars
comments

Good Times Gonna Come Tab



Aqualung - Good Times Gonna Come

main piano riff:
e|----0-|----0-|----0-|----0-| |-0-|
b|--1---|--1---|--1---|--3---| |-3-|
g|2-----|0-----|------|3-----| |-3-|
d|------|------|3-----|------| |-0-|
a|------|------|------|------| |---|
E|------|------|------|------| |---|
		       (1,2,3)  (4)
[ Tab from: http://www.guitartabs.cc/tabs/a/aqualung/good_times_gonna_come_tab.html ]
this riff is also played by a heavily distorted guitar during
the chorus and on and off palm muted through the verses

if you want to do it acoustic my advice is to play the riff for
the verse then the chords for the chorus as follows:
e|-0---0---0---0-|
b|-1---1---1---3-|
g|-2---0---2---3-|
d|-2---2---3---0-|
a|-0---3---0--(0)|
E|---------------|

as for the bridge...well...im working on it
Comments