Aquabats - Super Rad Chords & Tabs

 

Super Rad Chords & Tabs

Aquabats Chords & Tabs

Version: 1 Type: Bass Tab 0 ratings
1 star 2 stars 3 stars 4 stars 5 stars
comments

Super Rad Bass Tab

intro
G|--------------------------------------------------------------------||
D|----------10h11-10h11-----10h11-10h11----10h11-10h11----10h11-10h11-||
A|------9-9-------------9-9-------------9-9-------------9-9-----------||
E|-7--9---------------------------------------------------------------||

G|----------------------------------------------------------------||
D|----9-----9---------------10h11-10h11-----10h11-10h11-----------||
A|-7-7-7-7-7----9-----9--9-9--------------------------------------||
E|-----------7-7-7-7-7--------------------------------------------||
you do that twice, except the second time, you dont do the 7 9 in the very 
beggining.

verse
G|----------------------------------------------------------------------||
D|----10h11-10h11-----10h11-10h11-----10h11-10h11-----10h11-10h11-------||
A|-9-9-------------9-9-------------9-9-------------9-9------------------||
E|----------------------------------------------------------------------||

G|-------------------------------------11-11----------------------||
D|----9-----9---------------10h11-10h11-----10h11-10h11-----------||2 times
A|-7-7-7-7-7----9-----9--9-9--------------------------------------||
E|-----------7-7-7-7-7--------------------------------------------||

chorus
G|--------------------------------9-9-8-8-------------------------||
D|--------------------------11-11--------11-11-9-9----------------||
A|----8-8--------9-9----9-9---------------------------------------|| 2 times
E|-6-6---6-6--7-7---7-7-------------------------------------------||

verse
G|----------------------------------------------------------------------||
D|----10h11-10h11-----10h11-10h11-----10h11-10h11-----10h11-10h11-------||
A|-9-9-------------9-9-------------9-9-------------9-9------------------||
E|----------------------------------------------------------------------||

G|-------------------------------------11-11----------------------||
D|----9-----9---------------10h11-10h11-----10h11-10h11-----------||2 times
A|-7-7-7-7-7----9-----9--9-9--------------------------------------||
E|-----------7-7-7-7-7--------------------------------------------||
[ Tab from: http://www.guitartabs.cc/tabs/a/aquabats/super_rad_btab.html ]
chorus
G|--------------------------------9-9-8-8-------------------------||
D|--------------------------11-11--------11-11-9-9----------------||
A|----8-8--------9-9----9-9---------------------------------------|| 2 times
E|-6-6---6-6--7-7---7-7-------------------------------------------||

break down ("all systems go")
G|--------------------------------------------------------------------||
D|--------6---6----9---9--11---11-------9---9---------11-11--9-8--9-8-||
A|--1-2-*4-4-4-4--7-7-7--9--9-9--9---7-7-7-7-----9---9--9-------9----9||2 times
E|-2------------------------------------------7-7-7-7-----------------||
   * this part on the 4 to the 6 thing is fast.

the part where its just drums horn and bass
G|---------------11-11--------------------------11-11-------------||
D|----10h11-10h11-----10h11-10h11----10h11-10h11-----10h11-10h11--||
A|-9-9----------------------------9-9-----------------------------||
E|----------------------------------------------------------------||

G|-----------------------------------------------------------------||
D|----9-----9---------------10h11-10h11----------------------------||
A|-7-7-7-7-7----9-----9--9-9-----------9---------------------------||
E|-----------7-7-7-7-7---------------------------------------------||

then it does the part with just bass drums and voice(" and if we die,")
G|---------------11-11--------------------------------------------------||
D|----10h11-10h11-----10h11-10h11----10h11-10h11-9\1--9-----9-----------||
A|-9-9----------------------------9-9----------------7-7-7-7----9-----0-||
E|-----------------------------------------------------------7-7-7-7-7--||
you do the slide with him as he says "throughhhhh"

G|----------------------------------------------------------------||
D|----10h11-10h11-------------------------------------------------||
A|-9-9-----------9------------------------------------------------||
E|----------------------------------------------------------------||

chorus
G|--------------------------------9-9-8-8-------------------------||
D|--------------------------11-11--------11-11-9-9----------------||
A|----8-8--------9-9----9-9---------------------------------------|| 2 times
E|-6-6---6-6--7-7---7-7-------------------------------------------||

then you do the breakdown fast
G|-----------------------------------------------------------------||
D|-----------------------------------------------------------------||
A|--1-2-44444444-77777777-99999999-77777777--------999999999999---9||
E|-2---------------------------------------77777777------------7-9-||
Comments