Aquabats - Ska Robot Army Chords & Tabs

 

Ska Robot Army Chords & Tabs

Aquabats Chords & Tabs

Version: 1 Type: Tab 1 rating
1 star 2 stars 3 stars 4 stars 5 stars
comments

Ska Robot Army Tab

   
The Aquabats

Ska Robot Army

Standard Tuning

intro:
    C    D    A   C
|---7----10---5---7--|  
|---7----10---5---7--|
|---8----11---6---8--|
|---9----12---7---9--|  x2  (yes, I know you play C twice in a row)
|---9----12---7---9--|
|---7----10---5---7--|

chorus:
                     |---3--|                |--3--|             |--3--|
|---x-7-x-7-x-7-x-7--x-10-10--x-10-x-10-x-10--x-5-5--x-5-x-5-x-5--x-7-7--x-7-x-7-x-7--|
|---x-7-x-7-x-7-x-7--x-10-10--x-10-x-10-x-10--x-5-5--x-6-x-5-x-5--x-8-8--x-7-x-7-x-7--|
|---x-8-x-8-x-8-x-8--x-11-11--x-11-x-11-x-11--x-6-6--x-7-x-6-x-6--x-9-9--x-8-x-8-x-8--| x1
|---x-9-x-9-x-9-x-9--x-12-12--x-12-x-12-x-12--x-7-7--x-7-x-7-x-7--x-9-9--x-9-x-9-x-9--|
|-------------------------------------------------------------------------------------|
|-------------------------------------------------------------------------------------|

then...
                                         |--3--|             |--3--|
|---x-7-x-7-x-7-x-7--x-10-x-10-x-10-x-10--x-5-5--x-5-x-5-x-5--x-7-7--x-7-x-7-x-7--|
|---x-7-x-7-x-7-x-7--x-10-x-10-x-10-x-10--x-5-5--x-6-x-5-x-5--x-8-8--x-7-x-7-x-7--|
|---x-8-x-8-x-8-x-8--x-11-x-11-x-11-x-11--x-6-6--x-7-x-6-x-6--x-9-9--x-8-x-8-x-8--|  x3
|---x-9-x-9-x-9-x-9--x-12-x-12-x-12-x-12--x-7-7--x-7-x-7-x-7--x-9-9--x-9-x-9-x-9--|
|---------------------------------------------------------------------------------|
|---------------------------------------------------------------------------------|

[ Tab from: http://www.guitartabs.cc/tabs/a/aquabats/ska_robot_army_tab.html ]
this is the part with the trumpets or whatever

|---x-7-x-7-x-7-x-7--x-10-x-10-x-10-x-10--x-5-x-5-x-5-x-5--x-7-x-7-x-7-x-7--|
|---x-7-x-7-x-7-x-7--x-10-x-10-x-10-x-10--x-6-x-5-x-5-x-5--x-7-x-7-x-7-x-7--|
|---x-8-x-8-x-8-x-8--x-11-x-11-x-11-x-11--x-7-x-6-x-6-x-6--x-8-x-8-x-8-x-8--|  x4
|---x-9-x-9-x-9-x-9--x-12-x-12-x-12-x-12--x-7-x-7-x-7-x-7--x-9-x-9-x-9-x-9--|
|---------------------------------------------------------------------------|
|---------------------------------------------------------------------------|


  they're coming to  take over          |--3--|             HUH!
|--x-7-x-7-x-7-x-7--x-10-x-10-x-10-x-10--x-5-5--x-5-x-5-x-5--7--|
|--x-7-x-7-x-7-x-7--x-10-x-10-x-10-x-10--x-6-6--x-6-x-6-x-6--7--|
|--x-8-x-8-x-8-x-8--x-11-x-11-x-11-x-11--x-7-7--x-7-x-7-x-7--8--|
|--x-9-x-9-x-9-x-9--x-12-x-12-x-12-x-12--x-7-7--x-7-x-7-x-7--9--|
|------------------------------------------------------------9--|
|------------------------------------------------------------7--|

    look out behind you    and    beware of the ska robot army
|--x-7-x-7-x-7-x-7-x-7-x-7-x-7-x-7----10--------5---------7---|
|--x-7-x-7-x-7-x-7-x-7-x-7-x-7-x-7----10--------5---------7---|
|--x-8-x-8-x-8-x-8-x-8-x-8-x-8-x-8----11--------6---------8---|
|--x-9-x-9-x-9-x-9-x-9-x-9-x-9-x-9----12--------7---------9---|
|-------------------------------------12--------7---------9---|
|-------------------------------------10--------5---------7---|




and I think thats it, just 2 verses, same backing for both of them.
Figured out entirely by Rell
Comments