Aquabats - Pinch And Roll Chords & Tabs

 

Pinch And Roll Chords & Tabs

Aquabats Chords & Tabs

Version: 1 Type: Bass Tab 0 ratings
1 star 2 stars 3 stars 4 stars 5 stars
comments

Pinch And Roll Bass Tab

The Bass tabs
Group: The Aquabats
Song Title: Pinch and Role
Cd Title: Return of the Aquabats

Bass tabs by Scobywifme@aol.com


(Verse Tabs)
----------------------------------------------------------------------------------
-------5--3--2--3-------------------------------5--3--2--3------------------------
---3------------------------2--5--3--5------3------------------------2--5--3--5---
-----------------------3----------------------------------------3-----------------

----------------------------------------------------------------------------------
-------5--3--2--3-------------------------------5--3--2--3------------------------
---3------------------------2--5--3--5------3------------------------2--5--3--5---
-----------------------3----------------------------------------3-----------------

----------------------------------------------------------------------------------
-------5--3--2--3-------------------------------5--3--2--3------------------------
---3------------------------2--5--3--5------3------------------------2--5--3--5---
-----------------------3----------------------------------------3-----------------
[ Tab from: http://www.guitartabs.cc/tabs/a/aquabats/pinch_and_roll_btab.html ]
----------------------------------------------------------------------------------
-------5--3--2--3-------------------------------5--3--2--3------------------------
---3------------------------2--5--3--5------3------------------------2--5--3--5---
-----------------------3----------------------------------------3-----------------

(Chorus Tabs)
----------------------------------------
----------------------------------------
--3---3----3-------3---3---3------------
---------------------------------------- 

----------------------------------------
----------------------------------------
----------------------------------------
-3-3-2-2-1-1-0-0------------------------

----------------------------------------
----------------------------------------
--3---3----3-------3---3---3------------
----------------------------------------

----------------------------------------
----------------------------------------
----------------------------------------
-3-3-2-2-1-1-0-0------------------------

----------------------------------------
----------------------------------------
--3---3----3-------3---3---3------------
----------------------------------------

----------------------------------------
----------------------------------------
----------------------------------------
-3-3-2-2-1-1-0-0------------------------

----------------------------------------
----------------------------------------
--3---3----3-------3---3---3------------
----------------------------------------

(Verse Tabs)
(Chorus Tabs and Lyrics) 
Verse Tabs
Pick it up (x6)
(Verse Tabs)
(chorus Tabs and Lyrics) 

Comments