Aquabats - Meltdown Chords & Tabs

 

Meltdown Chords & Tabs

Aquabats Chords & Tabs

Version: 2 Type: Tab

Meltdown Tab

   
Tabbed by Jared (blowitupsurfer2005@yahoo.com)

Intro


E|-------------------------------------------------------------------||
B|-------------------------------------------------------------------||
G|---5---7-----------------------------------------------------------||
D|-7-5-5-7-7--repeat-------------------------------------------------||
A|-7-3-5-5-7---------------------------------------------------------||
E|-5---3---5---------------------------------------------------------||

Verse
Ska up strokes

   V ^  ^  V  ^   ^   V ^  ^  V  ^   V  ^
E|-5-5--5--8--8---8---5-5--5--8--8---10-10---------------------------||
B|-5-5--5--8--8---8---5-5--5--8--8---10-10---------------------------||
G|-6-6--6--9--9---9---6-6--6--9--9---11-11---------------------------||
D|-7-7--7--10-10--10--7-7--7--10-10--12-12---------------------------||
A|-7-7--7--10-10--10--7-7--7--10-10--12-12---------------------------||
E|-5-5--5--8--8---8---5-5--5--8--8---10-10---------------------------||


Chorus

|-----------------------------------------------------||
|-----------------------------------------------------||
|------------------5555555555555555----------77777777-||
|-7777777777777777-5555555555555555-55555555-77777777-||
|-7777777777777777-3333333333333333-55555555-55555555-||
|-5555555555555555------------------33333333----------||
[ Tab from: http://www.guitartabs.cc/tabs/a/aquabats/meltdown_tab_ver_2.html ]
|---------------------------------||
|---------------------------------||
|---------------------------------||
|-7777777777777777----repeat------||
|-7777777777777777----------------||
|-5555555555555555----------------||


Solo

|-------------------------------------------------------------------||
|-------------------------------------------------------------------||
|-------------------------------------------------------------------||
|-7-7-5-5-7-7-5-5-7-7-5-5-7-7-5-5-10-10-9-9-10-10-9-9-10-10-9-9-10--||
|-------------------------------------------------------------------||
|-------------------------------------------------------------------||

|-------------------------------------------------------------------||
|-------------------------------------------------------------------||
|-------------------------------------------------------------------||
|-10-9-9-12-12-10-10-12-12-10-10-12-12-10-10-12-12-10-10-14~~~------||
|-------------------------------------------------------------------||
|-------------------------------------------------------------------||

"I suggest you double the intensity"

|----------------||
|----------------||
|--14b-----------||
|----------------||
|----------------||
|----------------||

intro x2
(bass riff)
Verse x5
Chorus x2
(bass riff)
Verse x5
Chorus x2
Solo
Chorus x4

V-downstroke
^-upstroke
b-bend
~-vibrato