Aquabats - Idiot Box Chords & Tabs

 

Idiot Box Chords & Tabs

Aquabats Chords & Tabs

Version: 1 Type: Bass Tab 0 ratings
1 star 2 stars 3 stars 4 stars 5 stars
comments

Idiot Box Bass Tab

Song: Idiot Box	
Band: The Aquabats
Album: The Return of The Aquabats
tabbed by: Jeff Hernandez (allroy19@idt.net)



     6 Times
G:---------------------------------------------------------------
D:---------------4-77-4-----------------------------------------
A:--4-77-4---5--------------4-77-4--77-55-44----------------
E:5------------------------5----------------------7-------------
[ Tab from: http://www.guitartabs.cc/tabs/a/aquabats/idiot_box_btab.html ]
      Chorus: "Turn off the idiot box......"
G:---------------------------------------------------------------
D:---------------------------------------------------------------
A:----5-55-77-777-77-777 (????)--------5-55-7---------------
E:5-5---------------------------------5-5------------------------

     "Find yourself a partner....." (Just follow the rythym)
G:---------------------------------------------------------------
D:---------------------------------------------------------------
A:---------------------------------------------------------------
E:55-55-55-55--------------------------------------------------
Comments