Aquabats - Giant Robot Bird Head Chords & Tabs

 

Giant Robot Bird Head Chords & Tabs

Aquabats Chords & Tabs

Version: 1 Type: Tab 0 ratings
1 star 2 stars 3 stars 4 stars 5 stars
comments

Giant Robot Bird Head Tab

   
 intro:  (2x)
   e|------------------------------------------------|
   B|------------------------------------------------|
   G|------------------------------------------------|
   D|55----------33----------22----00-11-22----------|
   A|---22-33-55----22-33-55----33----------33-22----|
   E|---------------------------------------------11-|

   bridge:  (1x)
   e|------------------|
   B|------------------|
   G|------------------|
   D|6666-77777-7777-6-|
   A|4444-55555-5555-4-|
   E|------------------|

   verse:  (4x)
   "out of the sky, the floating...."
   e|---------------------|
   B|---------------------|
   G|---------------------|
   D|--------5-5-999-1010-|
   A|5-5-555-3-3-777-8-8--|
   E|3-3-333--------------|

   pre chorus:  (4x)
   "the giant robot with...."
   e|----------|
   B|----------|
   G|----------|
   D|12-12-9-9-|
   A|10-10-7-7-|
   E|----------|

   chorus:  (4x)
   "Fire! Now we're talkin'...."
   e|------------------------------------------------|
   B|------------------------------------------------|
   G|------------------------------------------------|
   D|55----------33----------22----00-11-22----------|
   A|---22-33-55----22-33-55----33----------33-22----|
   E|---------------------------------------------11-|

   post chorus:  (2x)
   "Kaboom! Fall down...."
   e|-------------12-14-15--------------12-14-15-|
   B|--------------------------------------------|
   G|121212-14-15----------121212-14-15----------|
   D|--------------------------------------------|
   A|--------------------------------------------|
   E|--------------------------------------------|

   e|15-15-14-12-----------------------------------|
   B|------------15-13-12---------------------12~~-|
   G|---------------------14-12-14-15-12-14-15-----|
   D|----------------------------------------------|
   A|----------------------------------------------|
   E|----------------------------------------------|

   bridge:  (1x)
   e|------------------|
   B|------------------|
   G|------------------|
   D|6666-77777-7777-6-|
   A|4444-55555-5555-4-|
   E|------------------|
[ Tab from: http://www.guitartabs.cc/tabs/a/aquabats/giant_robot_bird_head_tab.html ]
   verse:  (4x)
   "Jumbo machine, shiny and...."
   e|---------------------|
   B|---------------------|
   G|---------------------|
   D|--------5-5-999-1010-|
   A|5-5-555-3-3-777-8-8--|
   E|3-3-333--------------|

   pre chorus:  (4x)
   "The giant robot with...."
   e|-----------|
   B|-----------|
   G|-----------|
   D|12-12--9-9-|
   A|10-10--7-7-|
   E|-----------|

   chorus:  (4x)
   "Fire! Now we're talkin'...."
   e|------------------------------------------------|
   B|------------------------------------------------|
   G|------------------------------------------------|
   D|55----------33----------22----00-11-22----------|
   A|---22-33-55----22-33-55----33----------33-22----|
   E|---------------------------------------------11-|

   post chorus:  (2x)
   "Kaboom! Fall down...."
   e|-------------12-14-15--------------12-14-15-|
   B|--------------------------------------------|
   G|121212-14-15----------121212-14-15----------|
   D|--------------------------------------------|
   A|--------------------------------------------|
   E|--------------------------------------------|

   e|15-15-14-12-----------------------------------|
   B|------------15-13-12---------------------12~~-|
   G|---------------------14-12-14-15-12-14-15-----|
   D|----------------------------------------------|
   A|----------------------------------------------|
   E|----------------------------------------------|

   bridge:  (1x)
   e|-------------------------------------------------|
   B|-------------------------------------------------|
   G|-------------------------------------------------|
   D|6666-77777-7777-66666-5555-55555-9999-1010101010-|
   A|4444-55555-5555-44444-3333-33333-7777-8-8-8-8-8--|
   E|-------------------------------------------------|

   chorus:  (2x)
   "Fire! Now we're talkin'...."
   e|------------------------------------------------|
   B|------------------------------------------------|
   G|------------------------------------------------|
   D|55----------33----------22----00-11-22----------|
   A|---22-33-55----22-33-55----33----------33-22----|
   E|---------------------------------------------11-|

   (2x)
   "Oh oh when it's my...."
   e|-----------------|
   B|-----------------|
   G|-----------------|
   D|--------55--9-10-|
   A|55--55--33--7-8--|
   E|33--33-----------|

   the song ends with this:
   e|----------------|
   B|----------------|
   G|----------------|
   D|----------------|
   A|--5-------------|
   E|--3-------------|
Comments