Aquabats - Fashion Zombies Chords & Tabs

 

Fashion Zombies Chords & Tabs

Aquabats Chords & Tabs

Version: 1 Type: Tab

Fashion Zombies Tab

   
-------------------------------------------------------------------------------
			     fashion Zombies - the aquabats                
-----------------------------------------------------------------------------
Tabbed by:
Email:
[ Tab from: http://www.guitartabs.cc/tabs/a/aquabats/fashion_zombies_tab.html ]
Tuning:standard
       both guitars 4x               second guitar 2x
      intro                          pre corus
e|-----------------------------|---------------------------------------------|
B|-----------------------------|---------------------------------------------|
G|-----------------------------|---10-10-10-10-------------------------------|
D|-----------------1111--------|---10-10-10-10-------10-10-10-10-------------|
A|----1111---------------0000--|---8--8--8--8--------10-10-10-10-------------|
E|----------0000---------------|---------------------8--8--8--8--------------|
                                   first guitar between cords
                                    pre corus
e|-----------------------------|--13-12-10-------10-12-----------12-10-------|
B|-----------------------------|--------------13-------13-----11-------11----|
G|----------------7--7--7--7---|---------------------------------------------|
D|--8--8--8--8----7--7--7--7---|---------------------------------------------|
A|--8--8--8--8----5--5--5--5---|---------------------------------------------|
E|--6--6--6--6-----------------|---------------------------------------------|
                    both guitars playing
                     second guitar 2x corus
e|----10---------|-----------------------------------------------------------|
B|-11----13-10---|-----------------------------------------------------------|
G|---------------|--10-10-10-10-10-10-10-10----------------------------------|
D|---------------|--10-10-10-10-10-10-10-10-10-10-10-10-10-10-10-10----------|
A|---------------|--8--8--8--8--8--8--8--8--10-10-10-10-10-10-10-10----------|
E|---------------|--------------------------8--8--8--8--8--8--8--8-----------|

e|------------------------------------------------|--------------------------|
B|------------------------------------------------|--------------------------|
G|-------------------------7--7--7--7--7--7--7--7-|--------------------------|
D|-8--8--8--8--8--8--8--8--7--7--7--7--7--7--7--7-|--------------------------|
A|-8--8--8--8--8--8--8--8--5--5--5--5--5--5--5--5-|--------------------------|
E|-6--6--6--6--6--6--6--6-------------------------|--------------------------|
     first guitar 2x corus
e|--13-12-10----10-12-------12-10----------------10-12--|--------------------|
B|-----------13-------13-11-------13-10----10-13--------|--------------------|
G|------------------------------------------------------|--------------------|
D|------------------------------------------------------|--------------------|
A|------------------------------------------------------|--------------------|
E|------------------------------------------------------|--------------------|
     second guitar 4x verse                      1st&3rd pause  2and puase
e|----------------------------------------------|-------------|--------------|
B|----------------------------------------------|---+7-+7-----|--------------|
G|---------------7--7--x--5-5-4-4-------------7-|-+7---+7-----|--4\6--4\6----|
D|---7--7---10---7--7--x--5-5-4-4--7--7---10--7-|-------------|--4\6--4\6----|
A|---7--7---10---5--5--x--3-3-2-2--7--7---10--5-|-------------|--2\4--2\4----|
E|---5--5---8----------------------5--5---8-----|-------------|--------------|
intro
pre corus
corus
verse
pre corus
corus
verse
pre corus
corus
intro 
pre corus
corus 2x
| /  slide up
| \  slide down
| h  hammer-on
| ~  vibrato
| +  harmonic
| x  Mute note
===============================================================================