Aquabats - Fashion Zombies Chords & Tabs

 

Fashion Zombies Chords & Tabs

Aquabats Chords & Tabs

Version: 1 Type: Bass Tab

Fashion Zombies Bass Tab

   
Tabbed By : The Afrobat
Have fun playing one of the bast songs of all time!

Tuning:REGULAR

INTRO:
G|---------------------------------------------------------------------------|
D|---------------------------------------------------------------------------|
A|0000----6666----0000----6666----0000----6666----0000----6666---------------|
E|----0000----4444----0000----4444----0000----4444----0000----4444-----------|

CHORUS:
G|---------------------------------------------------------------------------|
D|3333--------------------0000----3333--------------------00000000-33333333--|
A|--------3333----1111--------------------3333----1111-----------------------|
E|---------------------------------------------------------------------------|
[ Tab from: http://www.guitartabs.cc/tabs/a/aquabats/fashion_zombies_btab.html ]
G|---------------------------------------------------------------------------|
D|------------------00000000-33333333-------------------00000000(00000)------|
A|33333333-11111111-------------------33333333-11111111----------------------|
E|---------------------------------------------------------------------------|
(ONLY ON 1ST 2 CHORUSES)
VERSE:
G|---------------------------------------------------------------------------|
D|---------------10-----------------------------10---------------------------|
A|0-0-3-0-5-5--10----0-0-3-0-5---0-0-3-0-5-5--10----0-0-3-0-5---0-0-3-0-5-5--|
E|---------------------------------------------------------------------------|

G|---------------------------------------------------------------------------|
D|--10--------------13-------------------10----------------------------------|
A|10----0-0-3-0-5/13--13--0-0-3-0-5-5--10----0-0-3-0-5-----------------------|
E|---------------------------------------------------------------------------|

SONG ORDER:
INTRO
CHORUS
VERSE
CHORUS
VERSE
CHORUS
INTRO
CHORUS
CHORUS


| /  slide up
|   slide down
| h  hammer-on
| p  pull-off
| ~  vibrato
| +  harmonic
| x  Mute note
=============================================================================