Aqua Timez - Velonica Chords & Tabs

 

Aqua Timez Chords & Tabs

Version: 4 Type: Bass Tab 0 ratings
1 star 2 stars 3 stars 4 stars 5 stars
comments

Velonica Bass Tab

   
Drop D.

Each note is an eight note unless stated otherwise. Held notes will appear as 2_2. Ex: 
would be held for
1.5 beats. 3_3_3... would be held for 7/16 beats. Listen to the song if you do not 
this timing. I
have a guitar pro version available for download if you have the program to help you 
the timing.

R = rest (eighth note rest)
_ = held note
... = dotted eighth note
(#) = grace note
/ = Slide Up
\ = Slide Down


Intro A (Before Drums): x2

G|----------------------|--------------|
D|--9_9_9...5_5_5...7_|7_7_7_7_7_7_7_7-|
A|--7_7_9...3_3_3...5_|5_5_5_5_5_5_5_5-|
D|----------------------|--------------|


Intro B (With Drums): x4

G|----------------------|--------------|
D|--9_9_9...5_5_5...7_|7_7_7_7_7_7_7_7-|
A|--7_7_9...3_3_3...5_|5_5_5_5_5_5_5_5-|
D|----------------------|--------------|

PreVerse:

G|------------------|----------------|------------------|----------------|
D|------------------|----------------|------------------|----------------|
A|--7-7-7-3-3-3-3---|----------------|--7-7-7-3-3-3-3---|----------------|
D|----------------0_|0-0-0-0-0-0-0-0-|----------------0_|0-0-0-0-0-0-0-0-|

G|------------------|----------------|------------------|----------------|
D|------------------|----------------|------------------|----------------|
A|--7-7-7-3-3-3-3---|----------------|--7-7-7-3-3-3-R---|----------------|
D|----------------0_|0-0-0-0-0-0-0-0-|----------------0_|0-0-0-0-0-0-0-0-|

Verse Part A: x4

G|----------------------|--------------|
D|--9_9_9...5_5_5...7_|7_7_7_7_7_7_7_7-|
A|--7_7_9...3_3_3...5_|5_5_5_5_5_5_5_5-|
D|----------------------|--------------|

Verse Part B:

G|------------------|----------------|-----------------|--------------------------|
D|------------5-R-4_|4-----------4-2-|-R---------5-R-4_|4---------------7-7-5-4-5-|
A|----7-R-3_3-------|--5-R-3-3-0-----|-----7-3-3-------|--5...-R (1/16)-----------|
D|--2---------------|----------------|---2-------------|--------------------------|

G|------------------|----------------|-----------------|-----------------------|
D|------------5-R-4_|4-------------4-|-----------5-R-4_|4------(5)-7-7-5-4-5---|
A|----7-R-3_3-------|--5-R-3-3-0-5---|---7-R-3_3-------|--5-R------------------|
D|--2---------------|----------------|-2---------------|-----------------------|

PreChorus A: (The notes and timing for these first 4 measure are extremely hard to 
so I did the best I could)

G|----------------4-|-4...5...7_7-5-4-2-|-4-4-4-----------|-----------------|
D|----------5-5-5---|-------------------|-------5-5-5-4-5-|-7-5-4-5-7-5-4-5-|
A|--3-3-3-3---------|-------------------|-----------------|-----------------|
D|------------------|-------------------|-----------------|-----------------|

G|------------------|------------------|-----------------|----------------|
D|------2-2-5-5-2-2-|-----2-2-5-5-2-7\-|-R-0-0-R-0-0-R---|----------------|
A|--4-4-------------|-3-3--------------|---------------2_|2-2-6-6-7-7-9-9-|
D|------------------|------------------|-----------------|----------------|

Chorus:

G|------------------|-----------------|-----------------|-----------------|
D|------------------|-----------------|-----------------|-----------------|
A|--3-3-3-5-5-5-5-5-|-----------------|-3-3-3-5-5-5-5-5-|-----------------|
D|------------------|-2-2-2-5-5-5-5-5-|-----------------|-2-2-2-2-2-2-2-2-|

G|------------------|-----------------|-----------------|-----------------|
D|------------------|-----------------|-----------------|-----------------|
A|--3-3-3-5-5-5-5-5-|-----------------|-3-3-3-5-5-5-5-5-|-----------------|
D|------------------|-2-2-2-5-5-5-5-5-|-----------------|-2-2-2-2-2-2-2-2-|

G|------------------|-----------------|-----------------|-----------------|
D|------------------|-----------------|-----------------|-----------------|
A|--3-3-3-5-5-5-5-5-|-----------------|-3-3-3-5-5-5-5-5-|-----------------|
D|------------------|-2-2-2-5-5-5-5-5-|-----------------|-2-2-2-2-2-2-2-2-|

G|------------------|-----------------------|-----------------|-----5_5-5-------|-------7_7-7-----|
D|------------------|----------------10_10\-|-----------------|----5------5-----|-----7------7-0--|
A|--3-3-3-5-5-5-5-5-|-------/10_10_10--------|---------------3_|3-3---------5----|-5-5------------|
D|------------------|-2-2-2-----------------|-5-5-5-7_7-7-7---|-----------------|-----------------|

PreVerse:

G|------------------|----------------|------------------|----------------|
D|------------------|----------------|------------------|----------------|
A|--7-7-7-3-3-3-3---|----------------|--7-7-7-3-3-3-3---|----------------|
D|----------------0_|0-0-0-0-0-0-0-0-|----------------0_|0-0-0-0-0-0-0-0-|
\
G|------------------|----------------|------------------|----------------|
D|------------------|----------------|------------------|----------------|
A|--7-7-7-3-3-3-3---|----------------|--7-7-7-3-3-3-R---|----------------|
D|----------------0_|0-0-0-0-0-0-0-0-|----------------0_|0-0-0-0-0-0-0-0-|

Verse Part A: x4

G|--------------------|-------------------|
D|--9_9_9...5_5_5...7_|7_7_7_7_7_7_7_7----|
A|--7_7_9...3_3_3...5_|5_5_5_5_5_5_5_5----|
D|--------------------|-------------------|

Verse Part C:

G|--------------5-5-|-5-5-5-----------|-----------------|-----------------|
D|------------5-----|-----------5-5-5-|-----------------|-------------5-5-|
A|--3-3-3-3-3-------|-------3-5-------|-----------------|-----------5-----|
D|------------------|-----------------|-5-5-5-5-5-5-5-5-|-5-5-5-5-5-------|
[ Tab from: http://www.guitartabs.cc/tabs/a/aqua_timez/velonica_btab_ver_4.html ]
G|-------------------|-----------------|-----------------|-------------------|
D|-------------------|-----------------|---0-0-R-0-0-R---|-------------------|
A|--5-5-5-5-5-5-10\5-|-3-3-3-3-3-3-9\3-|-R--------------2_|2-2-6-6-7-7-9-9---|
D|-------------------|-----------------|-----------------|-------------------|

Chorus:

G|------------------|-----------------|-----------------|-----------------|
D|------------------|-----------------|-----------------|-----------------|
A|--3-3-3-5-5-5-5-5-|-----------------|-3-3-3-5-5-5-5-5-|-----------------|
D|------------------|-2-2-2-5-5-5-5-5-|-----------------|-2-2-2-2-2-2-2-2-|

G|------------------|-----------------|-----------------|-----------------|
D|------------------|-----------------|-----------------|-----------------|
A|--3-3-3-5-5-5-5-5-|-----------------|-3-3-3-5-5-5-5-5-|-----------------|
D|------------------|-2-2-2-5-5-5-5-5-|-----------------|-2-2-2-2-2-2-2-2-|

G|------------------|-----------------|-----------------|-----------------|
D|------------------|-----------------|-----------------|-----------------|
A|--3-3-3-5-5-5-5-5-|-----------------|-3-3-3-5-5-5-5-5-|-----------------|
D|------------------|-2-2-2-5-5-5-5-5-|-----------------|-2-2-2-2-2-2-2-2-|

G|------------------|-----------------------|-----------------|-----5_5-5-------|-------7_7-7-----|
D|------------------|----------------10_10\-|-----------------|----5------5-----|-----7------7-0--|
A|--3-3-3-5-5-5-5-5-|-------/10_10_10--------|---------------3_|3-3---------5----|-5-5------------|
D|------------------|-2-2-2-----------------|-5-5-5-7_7-7-7---|-----------------|-----------------|

Interlude (2 bar Intro):

G|------------------|-------------7_7\-|
D|------------------|------------------|
A|--R_R_R_R_R_R_R_R-|-R_R_R_R_R_R------|
D|------------------|------------------|

Interlude:

G|--------------5-5-|-5-5-5-----------|-----------------|-----------------|
D|------------5-----|-------2-2-5-5-5-|-----------------|-----------------|
A|--3-3-3-3-3-------|-----------------|-----------5-----|-----5-----2-2-2-|
D|------------------|-----------------|-5-5-5-5-5---5-5-|-5-5---5-5-------|

G|--------------5-5-|-5-5-5-----------|-----------------|-----------------|
D|------------5-----|-------2-2-5-5-5-|-----------------|-----------------|
A|--3-3-3-3-3-------|-----------------|-----------5-----|-----5-----2-2-2-|
D|------------------|-----------------|-5-5-5-5-5---5-5-|-5-5---5-5-------|

G|--------------5-5-|-5-5-5-----------|-----------------|-----------------|
D|------------5-----|-------2-2-5-5-5-|-----------------|-----------------|
A|--3-3-3-3-3-------|-----------------|-----------5-----|-----5-----2-2-2-|
D|------------------|-----------------|-5-5-5-5-5---5-5-|-5-5---5-5-------|

G|--------------5-5-|-5-5-5---------2-|-4-4-4-2-2-2-0-0-|-0---------------|
D|------------5-----|-------2-2-5-5---|-----------------|---4-4-4-2-2-0-0-|
A|--3-3-3-3-3-------|-----------------|-----------------|-----------------|
D|------------------|-----------------|-----------------|-----------------|

Interlude (9 bar Outro)

G|------------------|-----------------|-----------------|-----------------|
D|------------7-----|-----------5-----|-----------------|-----------------|
A|--4-4-4-4-4---4-4-|-3-3-3-3-3---3-3-|-5-5-5-5-5-5-5-5-|-2-2-2-2-2-2-2-2-|
D|------------------|-----------------|-----------------|-----------------|

G|------------------|-----------------|-----------------|----------------|------------------|
D|------2-2-5-5-2---|----2-2-5-5-2-7\-|-R-0-0-R-0-0-R---|----------------|------------------|
A|--4-4-----------3_|3-3--------------|---------------2_|2-2-2-2-2-2-2-2-|-2-2-2-2-2-2-2-2--|
D|------------------|-----------------|-----------------|----------------|------------------|
Chorus (Variant):

G|------------------|-----------------|-----------------|-----------------|
D|------------------|-----------------|-----------------|-----------------|
A|--3-3-3-5-5-5-5-5-|-----------------|-3-3-3-5-5-5-5-5-|-----------------|
D|------------------|-2-2-2-5-5-5-5-5-|-----------------|-2-2-2-2-2-2-2-2-|

G|------------------|-----------------|-----------------|-----------------|
D|------------------|-----------------|-----------------|-----------------|
A|--3-3-3-5-5-5-5-5-|-----------------|-3-3-3-5-5-5-5-5-|-----------------|
D|------------------|-2-2-2-5-5-5-5-5-|-----------------|-2-2-2-2-2-2-2-2-|

G|------------------|-----------------|-----------------|-----------------|
D|------------------|-----------------|-----------------|-----------------|
A|--3-3-3-5-5-5-5-5-|-----------------|-3-3-3-5-5-5-5-5-|-----------------|
D|------------------|-2-2-2-5-5-5-5-5-|-----------------|-2-2-2-2-2-2-2-2-|

G|------------------|-----------------------|-----------------|-----5_5-5-------|-----9\7_7-7----|
D|------------------|----------------10_10\-|-----------------|----5------5-----|-------------7-0|
A|--3-3-3-5-5-5-5-5-|-------/10_10_10--------|---------------3_|3-3---------5----|-5-5-----------|
D|------------------|-2-2-2-----------------|-5-5-5-7_7-7-7---|-----------------|----------------|

Outro:

G|------------------|----------------|------------------|----------------|
D|------------------|----------------|------------------|----------------|
A|--7-7-7-3-3-3-3---|----------------|--7-7-7-3-3-3-3---|----------------|
D|----------------0_|0-0-0-0-0-0-0-0-|----------------0_|0-0-0-0-0-0-0-0-|

G|------------------|----------------|------------------|-------------------|
D|------------------|----------------|------------------|-------------------|
A|--7-7-7-3-3-3-3---|----------------|--7-7-7-3-3-3-R---|------------0-3----|
D|----------------0_|0-0-0-0-0-0-0-0-|----------------0_|0-0-0-0-0-0--------|

G|------------------|------------------|
D|------2-2-5-5-2-2-|------------------|
A|--4-4-------------|-3_3\-------------|
D|------------------|------------------|
Comments