Aqua Timez - Velonica Chords & Tabs

 

Aqua Timez Chords & Tabs

Version: 1 Type: Bass Tab 0 ratings
1 star 2 stars 3 stars 4 stars 5 stars
comments

Velonica Bass Tab

Tabbed by: Revadarius
E-mail:    Revadarius@hotmail.co.uk

Tuning: Drop D

_____________


Intro:

G|--------------------------------|
D|-9/--5\--7----------------------|
A|-7/--3\--5----------------------|
D|--------------------------------|

G|--------------------------------|
D|--------------------------------|
A|-777----------------------------|
D|-----9999-0-0000000-------------|

Verse:

G|--------------------------------|
D|-9/--5\--7----------------------|
A|-7/--3\--5----------------------|
D|--------------------------------|

G|----------------------------------------------------------------|
D|----------------------------------------------------------------|
A|---7---10-9--------------------7---10-9----10-11-13-11-10-11----|
D|-3---9------12-5-7-8-7-5-7---3---9------12----------------------|

Pre-Chrous:

G|----------------------------------------------------------------|
D|-----------10-12~-10-9------------------------------------------|
A|-3333377799------------12 141414101010---12-10~-9-10-12-10-9-10-|
D|---------------------------------------12-----------------------|

[ Tab from: http://www.guitartabs.cc/tabs/a/aqua_timez/velonica_btab.html ]
G|----------------------------------------------------------------|
D|-------------------------------------------00-00----------------|
A|-------7-7-10-10-7-7-------7-7-10-10-7-7/--------2-667799-------|
D|-11-11---------------10-10--------------------------------------|

Chrous:

G|--------------------------------|
D|--------------------------------|
A|-33-5555---------33-5555--------|
D|---------22-5555---------22-2222|

Outro:

G|----------------------------------------------------------------|
D|----------------------------------------------------------------|
A|-33-5555---------33-5555---------33-5555---------33-5555--------|
D|---------22-5555---------22-2222---------22-5555---------22-----|

G|--------------------------5------------7------------------------|
D|----------------------------5--------7--------------------------|
A|-12-10-------000-2-22-3-3-----3--5-5-----5----------------------|
D|-------12-11---------------------------------2-(Let Rings)------|

____________________________________________________

This is the first tab I've ever done,
I actually worked this out from REDA's Bass Cover from Youtube...
I doubt it's perfect, and you'll have to listen by ear to get the rhythm,
but atleast it's a close enough tab until someone finally creates a master copy.

Hope you enjoy.
Comments