Apulanta - Tulva Chords & Tabs

 

Tulva Chords & Tabs

Apulanta Chords & Tabs

Version: 1 Type: Tab 0 ratings
1 star 2 stars 3 stars 4 stars 5 stars
comments

Tulva Tab

   
Intro 1.
e|----------------------------------|
h|----------------------------------|
G|----------------------------------|       Riffin päälle soinnut:
D|----------------------------------| x8    E5 C5 G5 D5
A|-3-2-3-2---2-3-2-3-2---2-3-2------|
E|-----------------------------3-2--|
H|----------------------------------|

Säkeistö.
  Em         C          G
  Tanssitaan miinakentällä
           D            Em
  Niinkuin kumpikaan ei
             C       G      D
  ois nähnyt varoitusnauhaa


Bridge.
(dempaten)
   E5             C5             G5             D5
e|---------------------------------------------------|
h|---------------------------------------------------|
G|---------------------------------------------------|
D|---------------------------------------------------| x2
A|-2-2---------------------------5-5-----------------|
E|-0-0------------3-3------------3-3------------5-5--|
H|----------------1-1---------------------------3-3--|
   D D            D D            D D            D D 
      Tämä myrkky polttaa         niinkuin       kuuma rauta
      Tämä myrkky polttaaaa


Intro 1.

Säkeistö.
  Em        C         G
  Pimeemmät alueet aina
         D           Em    
  Kiinnostaa enemmän
           C           G      D
  kuin valokeilan raiskaamat
[ Tab from: http://www.guitartabs.cc/tabs/a/apulanta/tulva_tab.html ]
Bridge. 
(Voimakkaammin dempaten)
   E5             C5             G5             D5
e|---------------------------------------------------|
h|---------------------------------------------------|
G|---------------------------------------------------|
D|---------------------------------------------------| x2
A|-2-2---------------------------5-5-----------------|
E|-0-0------------3-3------------3-3------------5-5--|
H|----------------1-1---------------------------3-3--|
   D D            D D            D D            D D 
      Tämä  ääni  huutaa         niinkuin       ruttokellot
      Tämä  ääni  huutaaaa


Kertosäe.
 E5 F5 G5      H5 C5 D5 
e|-----------------------|
h|-----------------------|
G|-----------------------|
D|-2-3-5-----------------| x2
A|-2-3-5---------2-3-5---|
E|-0-1-3---------2-3-5---|
H|---------------0-1-3---|
                                   
   Auetkoon maa       ja nielköön meidät
   Tulkoon tulva      ja vieköön meidät


Intro 1.

Säkeistö.
  Em    C           G    
  Nolla seitsemän sataa
          D               Em
  on luku meidän maailman
        C           G          D
  Uudet kuvat ilman kyyneleitä saadaan

Bridge. 
(Täysillä)
   E5             C5             G5             D5
e|---------------------------------------------------|
h|---------------------------------------------------|
G|---------------------------------------------------|
D|-2-2---------------------------5-5-----------------| x2
A|-2-2------------3-3------------5-5------------5-5--|
E|-0-0------------3-3------------3-3------------5-5--|
H|----------------1-1---------------------------3-3--|
    
      Tämä  aika  polttaa         niinkuin       myrkky meitä
      Tämä  aika  polttaaaa


Kertosäe.
 E5 F5 G5      H5 C5 D5    
e|-----------------------|
h|-----------------------|
G|-----------------------|
D|-2-3-5-----------------| x2
A|-2-3-5---------2-3-5---|
E|-0-1-3---------2-3-5---|
H|---------------0-1-3---|
                                   
   Auetkoon maa       ja nielköön meidät
   Tulkoon tulva      ja vieköön meidät

Intro 1.

Välisoitto. (Wah)
    E5        C5
e|--12~-------8~--|
h|----------------|
G|----------------|
D|----------------| x4
A|----------------|
E|----------------|

Comments