Apulanta - Todella Jossain Chords & Tabs

 

Todella Jossain Chords & Tabs

Apulanta Chords & Tabs

Version: 1 Type: Chords 0 ratings
1 star 2 stars 3 stars 4 stars 5 stars
comments

Todella Jossain Chords

   
A
E
A
Elän elämääni kaupungissa
F#m
Missä olen yksi tuhansista
D                   E
Jotka elää samaa elämää
A 
Minä tahdon paikan auringossa
F#m
Elää niinkuin herran kukkarossa
D                            E
Joku silti aina ylitseni kiipeää

C#m                  D  A
On turhaa liikaa odottaa
C#m
On sillä väliä nyt ainoastaan
D
Mitä kulman takaa tulee vastaan

E   D            A
Aaaaa olen todella jossain
E   D            A
Aaaaa olen todellakin
E   D            A
Aaaaa olen todella jossain
D 
Ulos ei oo kovin helppo löytää
E                          A
Pitäisihän sinunkin se tietää

A
Mä en tarvii ketään kertomaan
F#m
Kuinka huomenna on helpompaa
D                            E
Kyllä sekin vielä joskus selviää
A
Ei koskaan muutu samat neljä seinää
F#m
Kun sängylläni yksin puren heinää
D                           E
Haluun sitä kiellettyä hedelmää

C#m                   D  A
Niin turhaa liikaa odottaa
C#m
On sillä väliä nyt ainoastaan
D
Mitä kulman takaa tulee vastaan

E   D            A
Aaaaa olen todella jossain
E   D            A
Aaaaa olen todellakin
E   D            A
Aaaaa olen todella jossain
D 
Ulos ei oo kovin helppo löytää
E                          A
Pitäisihän sinunkin se tietää

Soolo

A
Joka päivä pelkkä muodollisuus
F#m
Voiko sitten uusi mahdollisuus
D                           E
Jonka voin taas heittää menemään

C#m                   D  A
On turha jäädä miettimään
C#m
On sillä väliä nyt ainoastaan
D
Mitä kulman takaa tulee vastaan

E   D            A
Aaaaa olen todella jossain
E   D            A
Aaaaa olen todellakin
E   D            A
Aaaaa olen todella jossain
D 
Ulos ei oo kovin helppo löytää
E                          A
Pitäisihän sinunkin se tietää

  TODELLA JOSSAIN - Apulanta
  www.apulanta.fi
  Tabulatuurin selvitti Sami Anttila

  Kotimaisia tabulatuureja & lyriikoita osoitteessa: www.muusikoiden.net

*=soita 8 kertaa
b=venytä
:=anna soida

riffi1
|--------------------------|
|--------------------------|
|----------2-2-------------|
|-2-4-2-4--2-2-4-2-2-------|
|-0-0-0-0--0-0-0-0-0-------|
|--------------------0-2-3-|


riffi2
|----------------------------------------------------------------------|
|----------------------------------------------------------------------|
|-4b5-5-5-5--4b5-5-5-5--4b5-5-5-5--5-4-2--1--2-------------------------|
|----------------------------------------------------------------------|
|-----------------------------------------------2-2-4--4-2--2-2-4--4-2-|
|-----------------------------------------------0-0-0--0-0--0-0-0--0-0-|

riffi4
|------------------|
|------------------|
|-4b5-5-5-5--5-4-2-|
|------------------|
|------------------|
|------------------|

riffi3
 A
|----------------------------------|
|----------------------------------|
|----------------------------------|
|----------------------------------|
|-2-2-4-4--2-2-4--2-2-4-4--2-2-4-4-|
|-0-0-0-0--0-0-0--0-0-0-0--0-0-0-0-|
|----------------------------------|
  Elän     elämääni   kaupungissa

 Minä  tahdon  paikan  auringossa
[ Tab from: http://www.guitartabs.cc/tabs/a/apulanta/todella_jossain_crd.html ]
 F#
|----------------------------------|
|----------------------------------|
|----------------------------------|
|----------------------------------|
|-4-4-6-6--4-4-6--4-4-6-6--4-4-6-6-|
|-2-2-2-2--2-2-2--2-2-2-2--2-2-2-2-|
 Missä   olen   yksi   tuhansista

 Elää  niinkuin herran kukkarossa
 D
|----------------------------------|
|----------------------------------|
|----------------------------------|
|-2-2-4-4--2-2-4--2-2-4-4--2-2-4-4-|
|-0-0-0-0--0-0-0--0-0-0-0--0-0-0-0-|
|----------------------------------|
|----------------------------------|
 Jotka    elää    samaa

Silti joku aina ylitseni

  E                riffi4
|----------------------------------|
|----------------------------------|
|----------------------------------|
|----------------------------------|
|-2-2-4-4--2-2-4--2-2-4-4--2-2-4-4-|
|-0-0-0-0--0-0-0--0-0-0-0--0-0-0-0-|
  elämää

  kiipeää

riffi5
  C#              D       A
|----------------------------------------|
|----------------------------------------|
|-6-6-6-6-6-6-6-6-7-7-7-7----------------|
|-6-6-6-6-6-6-6-6-7-7-7-7-2-2-4-2--2-2-4-|
|-4-4-4-4-4-4-4-4-5-5-5-5-0-0-0-0--0-0-0-|
|----------------------------------------|
 On turhaa liikaa   odottaa

  riffi6
    C#        D
|------------------|
|------------------|
|------------------|
|---6:--------7*---|
|---4:--------5*---|
|------------------|

riffi7
  E               D             A
|-------------------------------------------------------|
|-------------------------------------------------------|
|-------------------------------------------------------|
|-9-9-11-9-9-9-11-7-7-9-7-7-7-9-------------------------|
|-7-7--7-7-7-7--7-5-5-5-5-5-5-5-7-7-9-7-7-9-7-7-9-7-7-9-|
|-------------------------------5-5-5-5-5-5-5-5-5-5-5-5-|



riffi8
|-----------------------------------------|
|-----------------------------------------|
|-----------------------------------------|
|-6/7-7-7-7--6/7-7-7-7--6/7-7-7-7-7-7-7-7-|
|-4/5-5-5-5--4/5-5-5-5--4/5-5-5-5-5-5-5-5-|
|-----------------------------------------|

|-----------------------------------------|
|-----------------------------------------|
|-----------------------------------------|
|-8/9-9-9-9--8/9-9-9-9--8/9-9-9-9-9-9-9-9-|
|-6/7-7-7-7--6/7-7-7-7--6/7-7-7-7-7-7-7-7-|
|-----------------------------------------|

riffi1 2x
riffi2 1x
riffi4 2x
Elän elämääni kaupungissa
Missä olen yksi tuhansista
Jotka elää samaa elämää
Minä tahdon paikan auringossa
Elää niinkuin herran kukkarossa
Silti joku aina ylitseni kiipeää
riffi5 1x
On turhaa liikaa odottaa
riffi6 1x
On sillä väliä nyt ainoastaan
Mitä kulman takaa tulee vastaan

riffi7 3x
Aaaaa olen todella jossain
Aaaaa olen todellakin
Aaaaa olen todella jossain
riffi8 1x
Ulos ei oo kovin helppo löytää
Pitäisihän sinunkin se tietää

riffi1 2x
riffi4 2x
Mä en tarvii ketään kertomaan
Kuinka huomenna on helpompaa
Kyllä sekin vielä joskus selviää
Ei koskaan muutu samat neljä seinää
Kun sängylläni yksin puren heinää
Haluun sitä kiellettyä hedelmää
riffi5 1x
Niin turhaa liikaa odottaa
riffi6 1x
On sillä väliä nyt ainoastaan
Mitä kulman takaa tulee vastaan

riffi7 3x
Aaaaa olen todella jossain
Aaaaa olen todellakin
Aaaaa olen todella jossain
riffi8 1x
Ulos ei oo kovin helppo löytää
Pitäisihän sinunkin se tietää
riffi4 1x Soolo

riffi4 1x
Joka päivä pelkkä muodollisuus
Voiko sitten uusi mahdollisuus
Jonka voin taas heittää menemään
riffi5 1x
Niin turhaa liikaa odottaa
riffi6 1x
On sillä väliä nyt ainoastaan
Mitä kulman takaa tulee vastaan
riffi7 3x
Aaaaa olen todella jossain
Aaaaa olen todellakin
Aaaaa olen todella jossain
riffi6 1x
Ulos ei oo kovin helppo löytää
Pitäisihän sinunkin se tietää

Comments