Apulanta - Silti Onnellinen Chords & Tabs

 

Silti Onnellinen Chords & Tabs

Apulanta Chords & Tabs

Version: 1 Type: Tab 0 ratings
1 star 2 stars 3 stars 4 stars 5 stars
comments

Silti Onnellinen Tab

   
       Intro

  H5    A5
|-------------------|
|-------------------|
|-------------------|
|-4-4-4-2-2-2-------|
|-2-2-2-0-0-0-------|
|-------------0-3-4-|

        Säe dempattuna

  E5              A5              H5              A5
|-----------------------------------------------------------------|
|-----------------------------------------------------------------|
|-----------------------------------------------------------------|
|---------------------2-------2-------4-------4-------2-----------|
|-----2-------2---0-0---0-0-0---0-2-2---2-2-2---2-0-0---0-0-------|
|-0-0---0-0-0---0-------------------------------------------0-3-4-|
  Mä antaisin     mun telkkarin   pois jonnekkin jos jaksaisin  
  Mä hautaisin    mun reidioun    mun kaappiin   jos pystyisin  
  Kun sunnuntai taas räjähtää,    mun tajuntaan  sisällä pään  
  Oon limainen ja suomuinen       ja mun olo on..

  Mä istumaan     sua pyytäisin   jos vastaisit sä kukkasin  
  Mä hymyilin     kun huomasin    sait jälleen iskun kasvoihin  
  En tahtois      olla tällainen  pitihän mun olla ykkönen
  Oon limainen    ja suomuinen    ja mun olo on..  

        Kertosäe säröllä
[ Tab from: http://www.guitartabs.cc/tabs/a/apulanta/silti_onnellinen_tab.html ]
  E5              A5              E5              A5
|-----------------------------------------------------------------|
|-----------------------------------------------------------------|
|-----------------2-2-2-2-2-2-2-2-----------------2-2-2-2-2-2-2-2-|
|-2-2-2-2-2-2-2-2-2-2-2-2-2-2-2-2-2-2-2-2-2-2-2-2-2-2-2-2-2-2-2-2-|
|-2-2-2-2-2-2-2-2-0-0-0-0-0-0-0-0-2-2-2-2-2-2-2-2-0-0-0-0-0-0-0-0-|
|-0-0-0-0-0-0-0-0-----------------0-0-0-0-0-0-0-0-----------------|
  Väkivaltainen       mutta silti varmaan onnellinen niin ihanasti

  E5              A5              H5
|-----------------------------------------------------------------|
|-----------------------------------------------------------------|
|-----------------2-2-2-2-2-2-2-2-4-4-4-4-4-4-4-4-4-4-4-4-4-4-4-4-|
|-2-2-2-2-2-2-2-2-2-2-2-2-2-2-2-2-4-4-4-4-4-4-4-4-4-4-4-4-4-4-4-4-|
|-2-2-2-2-2-2-2-2-0-0-0-0-0-0-0-0-2-2-2-2-2-2-2-2-2-2-2-2-2-2-2-2-|
|-0-0-0-0-0-0-0-0-------------------------------------------------|
  Itsetuhoinen           ja suloinen   yea-yeah

        Väliosa toisen kertosäkeen jälkeen

|---------------------------------|
|---------------------------------|
|-7-7-7-6-6-6-5-5-5-4-4-4---4---4-|
|-7-7-7-6-6-6-5-5-5-4-4-4---4---4-|
|-5-5-5-4-4-4-3-3-3-2-2-2---2---2-|
|---------------------------------|
Comments