Apulanta - Mita Vaan Chords & Tabs

 

Mita Vaan Chords & Tabs

Apulanta Chords & Tabs

Version: 1 Type: Tab 0 ratings
1 star 2 stars 3 stars 4 stars 5 stars
comments

Mita Vaan Tab

   
 INTRO

 E5  F5  C5  G/H

             Olin
|------------------|
|-------1----------|
|-----2------------|
|---2--------------|
|-0----------------|
|------------------|

 Säkeistö 1

 
 Kärpänen     sun keitossas        Finni   sinun poskellas
 Am                                E
|---------------------------------|---------------------------------|
|---------------------------------|---------------------------------|
|-2-2-0-2-2-0-2-0-2-2-0-2-2-0-2-0-|---------------------------------|
|-2-2-2-2-2-2-2-2-2-2-2-2-2-2-2-2-|-2-2-0-2-2-0-2-0-2-2-0-2-2-0-2-0-|
|-0---------------0---------------|-2-2-2-2-2-2-2-2-2-2-2-2-2-2-2-2-|
|---------------------------------|-0-------------------------------|
 demppaa kieliä

 Tauti jonka   pystyy      hoitamaan
  F               C                 G/H
|---------------------------------|---------------------------------|
|---------------------------------|-----------------3---------------|
|---------------------------------|-0-0-0-0-0-0-0-0-0---------------|
|-3-3-3-3-2-3-3-3-5-5-5-5-5-5-5-5-|-0-0-0-0-0-0-0-0-0---------------|
|-3-3-3-3-3-3-3-3-3-3-2-3-3-2-3-2-|-2-2-0-2-2-0-2-0-2---------------|
|-1-1-0-1-1-0-1-0-----------------|---------------------------------|
 demppaa kieliä                                    demppaus
                                                   loppuu


  Tahtoisin  sut takaisin           Aina kun    mä iltaisin
  Am                                E
|---------0-----------------------|-------0--------------0-----------|
|-------1--1---1------1-----------|----------------------------------|
|-----2------2------2-----2---2---|-----1---1---1------1---1--1------|
|---2-------------2---------2-----|---2-------2------2-------2-------|
|-0-------------0-----------------|----------------------------------|
|---------------------------------|-0--------------0-----------------|

 Rakastelen  muistoos       yksinään                             Mä
  F             C                   G/H                           
|-------1-------------0-----------|---------------------------------|
|---------1-----------1-------1---|-------0-----0----------1-----0--|
|-----2----2--------0-------0-----|-----0-----0----------0-----0--0-|
|---3-------3-----2-------2-------|---0------------0---0-----0------|
|---------------3-----------------|-2-------2--------2--------------|
|-1-------------------------------|---------------------------------|
   
 Olen täällä aivan yhtä vieras kuin sinäkin

  Am          G           E              F
|-0--0--0--0--3--3--3--3--0--0--0--0-----1--1--1--1-|
|-1--1--1--1--3--3--3--3--0--0--0--0-----1--1--1--1-|
|-2--2--2--2--4--4--4--4--1--1--1--1-----2--2--2--2-|
|---------------------------------------------------|
|---------------------------------------------------|
|---------------------------------------------------|

  F5               C5           G
    Silti kai voit auttaa eksymään

  KERTO
           C
  Mä teen ihan mitä vaan
        Am
  Menen ihan mihin vaan
       Dm
  Lopulta se vie mut
        G
  sairaalaan

           C
  Mä teen ihan mitä vaan
        Am
  Menen ihan mihin vaan
       Dm
  Lopulta se vie mut
        G        E5 A5
  sairaalaan  A-aa-aa     

  SÄKEISTÖ 2 (tähän tulee molemmat 1.säkeen riffit päällekkäin 2 kertaa+tämä)

Jos voisin niin  mä antaisin    kaiken minkä omistin

   Am                           Em 
  |----------------------------|----------------------|
  |-1------1---------1----1----|----------------------|
  |-2------2---------2----2----|-1---1-------1---1----|
  |-2------2---------2----2----|-2---2-------2---2----|
  |-0------0---------0----0----|-2---2-------2---2----|
  |----------------------------|-0---0-------0---0----|
                        demp.        demp.      demp.
  kaiken  mistä  kerran haaveilin
[ Tab from: http://www.guitartabs.cc/tabs/a/apulanta/mita_vaan_tab.html ]
  F                C           G/H
|----------------------------|----------------------|
|----------------------------|----------------------|
|-2------2---------5----5----|-0---0----0----0------|
|-3------3---------5----5----|-0---0----0----0------|
|-3------3---------3----3----|-2---2----2----2------|
|-1------1-------------------|----------------------|
        demp.           demp.
(jatkuu sama riffi)
 
 Am                          E
 Oi jos yöt sun kanssasi ois kuluneet yhtä hitaasti
      F            C
 Kuin nämä jotka vietän yksinään

 (Dempatuilla powersoinnuilla+feedbackiä, korkeus:D)
 A5         G5           E       F
 Olen muukalainen enkä löydä takaisin
F5             C5           G
  Sinäkin voit auttaa eksymään

  KERTO
           C
  Mä teen ihan mitä vaan
        Am
  Menen ihan mihin vaan
       Dm
  Lopulta se vie mut
        G
  sairaalaan

           C
  Mä teen ihan mitä vaan
        Am
  Menen ihan mihin vaan
       Dm
  Lopulta se vie mut
        G        E5 F5 C5  G
  sairaalaan  A-aa-aa-aa   

  SOOLO:
       C       Am              Dm
|----|-------------3-----3----------------------------|
|----|-------------------------8b10--8-6--8-6^8^6-5-6-|
|*---|-5--0-5-4--5---4-5---4-5------------------------|
|-X\-|------------------------------------------------|
|-X\-|------------------------------------------------|
|----|------------------------------------------------|

*
 luisuta
 plektralla kieliä pitkin

  G                    C               Am
|------------------------------------------------------|
|-5^6^5---5------------5-8-----8-------5-8-----6-5-----|
|-------7---7--5-4-5-7-----7-5-7-9-7-5-5---7-5-7-5---5-|
|------------------------------------------------------|
|------------------------------------------------------|
|------------------------------------------------------|

  Dm                       G
|----------------------------------------------------------------|
|-8b10r8-6-8^6^5-6^5---5-----------------------------------------|
|--------------------7---7-5-7-5-4-5-4-2-4-2-0-2-----------------|
|------------------------------------------------5^3-2^3-2^0-2^0-|
|----------------------------------------------------------------|
|----------------------------------------------------------------|

   Am    G   E          F                       C               G
|--------------------------------------------------------------------|
|-----------------3--------------------5---5---5---------------------|
|--5--0-4----4--4---4--4-5--5--4-5--7b9-7b9-7b9-7b9-7-5-7b9-7-5------|
|---------------------------------------------------------------7-5-\|
|--------------------------------------------------------------------|
|--------------------------------------------------------------------|

                 LOPPUKERTO
         Mä teen ihan mitä vaan  menen ihan mihin vaan
 
                    C                    Am
|-----------------|--------------------------------|
|-----------------|--------------------------------|
|-----------------|--------------------------------|
|--------0-----0--|-2------------------(0^2)-------|
|----2-3---3-2----|--------------------------------|
|--3--------------|--------------------------------|
                      
                                      sulkuja ei soiteta 1. kerta
Lopulta se vie mut sairaalaan

      Dm                   G
|-------------------------------|
|-------------------------------| 
|-------------------------------|
|-----3----------------2-3-5----|
|-------------------------------|
|-------------------------------|

3xLOPPUKERTOSäE

 A-aa-aa
   E5 F5 C5 G/H        klikkaile mikin vaihtajalla
Comments