Apulanta - Jumala Chords & Tabs

 

Jumala Chords & Tabs

Apulanta Chords & Tabs

Version: 1 Type: Chords 0 ratings
1 star 2 stars 3 stars 4 stars 5 stars
comments

Jumala Chords

   
~=vibrato
T=tap, eli nopea näpäytys
/=slide

Intro.
                  T
G|----7-9------------------7-9-------------7-9---------------|
D|-5~-----9-7~--7-9-7/4-5~-----9-7~--4-5~------9-7-4-5-7-----|
A|-------------------------------------------------------3~--|

(Ilman kitaraa)
  Kultaiset hunnut peittää
  sisäänsä meidät syvempään
  Niin jäimme vangeiksi likaiseen kauneuteen
                Em       D
  Kun makeimman viinin antaa
            Em          D
  meidät juovuttaa uudestaan
          G          D            C       H5 H5 H5 D5 D5 D5
  Löydämmekö unten alta kadonneen tien?


E5            G5
 Missä taivas on?
              D5            C5           E5
 Missä jumala on, kun lauma polkee paikallaan?
            G5                 D5        C5
 Missä kuningas, joka meidät vapauttaa?

            Em       D
  Riivaajat ohjaa meitä
            Em          D
  päin suloisimpia esteitä
            G             D            C
  joihin ei ollenkaan tee tuskaa jäädä kii
         Em         D            Em          D
  Pimeät tunnit näyttää totuuden hetket pidempään
      G          D            C        H5 H5 H5 D5 D5 D5
  Itsekö me itsemme näin kirottiin?

[ Tab from: http://www.guitartabs.cc/tabs/a/apulanta/jumala_crd.html ]
E5            G5
 Missä taivas on?
              D5            C5           E5
 Missä jumala on, kun lauma polkee paikallaan?
            G5                 D5        C5
 Missä kuningas, joka meidät vapauttaa?

Soolo.
                  T
G|----7-9-------------------7-9----------------7-9---------------|
D|-5~-----9-7~--7-9-7/4-5~------9-7-4-5-7-4-5~-----9-7-4-5-7-----|
A|-----------------------------------------------------------3~--|

 D             Em/G         D
  Kun makeimman viinin antaa
              Em/G
  meidät taas juovuttaa
  G             D            C        H5 H5 H5 D5 D5 D5
  niin me löydämme kadonneen tien

E5            G5
 Missä taivas on?
              D5            C5           E5
 Missä jumala on, kun lauma polkee paikallaan?
            G5                 D5        C5
 Missä kuningas, joka meidät vapauttaa?

E5            G5
 Missä taivas on?
              D5            C5           E5
 Missä jumala on, kun lauma polkee haudallaan?
            G5                 D5        C5
 Missä kuningas, joka meidät vapauttaa?

Outro.
                  T
G|----7-9-------------------7-9---------7-5-4~--4-5-4-------------|
D|-5~-----9-7~--7-9-7/4-5~------9-7-4-5---------------7-4-5-7-----|
A|------------------------------------------------------------3~--|
Comments