Apulanta - Hemi Chords & Tabs

 

Hemi Chords & Tabs

Apulanta Chords & Tabs

Version: 1 Type: Bass Tab 0 ratings
1 star 2 stars 3 stars 4 stars 5 stars
comments

Hemi Bass Tab

   
Hemi
Apulanta
TablEdited by Poppamies
Tuning : E A D G 	Time Signature: 4/4



 |       |       |       |        |       |       |       |        
|--------------------------------|--------------------------------|
|- 5 tahti intoo ilman bassoo----|0-----------0-----------0-------|
|--------------------------------|--------------------------------|
|--------------------------------|--------------------------------|

 |       |       |       |        |       |       |       |        
|--------------------------------|--------------------------------|
|----0-----------0-------0-------|--------------------------------|
|--------------------------------|0-------------------------------|
|--------------------------------|--------2-------0-------2-------|

 |       |       |       |        |       |       |       |        
|--------------------------------|--------------------------------|
|--------------------------------|0---------------2---------------|
|0-------2-------3-------4-------|--------4---------------2-------|
|--------------------------------|--------------------------------|

 |       |       |       |        |       |       |       |        
|--------------------------------|--------------------------------|
|--------------------------------|--------------------------------|
|0-------------------------------|0-------------------------------|
|--------2-------0-------2-------|--------2-------0-------2-------|

 |       |       |       |        |       |       |       |        
|--------------------------------|--------------------------------|
|--------------------------------|0---------------2---------------|
|0-------2-------3-------4-------|--------4---------------2-------|
|--------------------------------|--------------------------------|

 |       |       |       |        |       |       |       |        
|--------------------------------|--------------------------------|
|--------------------------------|0-------------------------------|
|0-------------------------------|--------4-------2-------0-------|
|--------2-------0-------2-------|--------------------------------|

 |       |       |       |        |       |       |       |        
|--------------------------------|--------------------------------|
|2-------0-----------------------|------------------------0-------|
|----------------4-------2-------|0-------2-------4---------------|
|--------------------------------|--------------------------------|

 |       |       |       |        |       |       |       |        
|--------------------------------|--------------------------------|
|2-------------------------------|0-------------------------------|
|--------0-------2-------4-------|--------4-------2-------0-------|
|--------------------------------|--------------------------------|

 |       |       |       |        |       |       |       |        
|--------------------------------|--------------------------------|
|2-------0-----------------------|----------------2-------4-------|
|----------------4-------2-------|0-------4-----------------------|
|--------------------------------|--------------------------------|
[ Tab from: http://www.guitartabs.cc/tabs/a/apulanta/hemi_btab.html ]
 |       |       |       |        |       |       |       |        
|2-------------------------------|--------------------------------|
|--------4-------2---------------|0-------------------------------|
|------------------------4-------|--------4-------2-------0-------|
|--------------------------------|--------------------------------|

 |       |       |       |        |       |       |       |        
|--------------------------------|--------------------------------|
|2-------0-----------------------|------------------------0-------|
|----------------4-------2-------|0-------2-------4---------------|
|--------------------------------|--------------------------------|

 |       |       |       |        |       |       |       |        
|--------------------------------|--------------------------------|
|2-------------------------------|0-------------------------------|
|--------0-------2-------4-------|--------4-------2-------0-------|
|--------------------------------|--------------------------------|

 |       |       |       |        |       |       |       |        
|--------------------------------|--------------------------------|
|2-------------------------------|--------------------------------|
|--------------------------------|0---0---0-------0---0---0---0---|
|--------------------------------|--------------------------------|

 |       |       |       |        |       |       |       |        
|--------------------------------|--------------------------------|
|0-------0---0-------0---0-------|--------------------------------|
|--------------------------------|0---0---0---0---0---0---0---4---|
|--------------------------------|--------------------------------|

 |       |       |       |        |       |       |       |        
|--------------------------------|--------------------------------|
|0-------0---0-------0---0-------|0---0-------0---0---0---0-------|
|--------------------------------|--------------------------------|
|--------------------------------|--------------------------------|

 |       |       |       |        |       |       |       |        
|--------------------------------|--------------------------------|
|--------------------------------|--------------------------------|
|0-------------------------------|0-------2-------3-------4-------|
|--------2-------0-------2-------|--------------------------------|

 |       |       |       |        |       |       |       |        
|--------------------------------|--------------------------------|
|0---------------2---------------|--------------------------------|
|--------4---------------2-------|0-------------------------------|
|--------------------------------|--------2-------0-------2-------|

 |       |       |       |        |       |       |       |        
|--------------------------------|--------------------------------|
|--------------------------------|--------------------------------|
|0-------------------------------|0-------2-------3-------4-------|
|--------2-------0-------2-------|--------------------------------|

 |       |       |       |        
|--------------------------------|
|-------   ja silleen   ---------|
|--------------------------------|
|--------------------------------|

Transcribe! 6.0 transcription http://www.seventhstring.demon.co.uk/
Created with TablEdit http://www.tabledit.com/
http://www.geocities.com/jani_bjorklund/janis.html?1058405404377
Comments