Apulanta - Hallaa Chords & Tabs

 

Hallaa Chords & Tabs

Apulanta Chords & Tabs

Version: 1 Type: Tab 0 ratings
1 star 2 stars 3 stars 4 stars 5 stars
comments

Hallaa Tab

   
|------------------|
|-------1-0--------|
|-----0------0-----|
|---2------2---2---|
|-3----------------|
|------------------|

|------------------------------------------------------------------------|
|-------1-0---------------1-0---------------1-0---------------1-0--------|
|-----0------0----------0------0----------0------0----------0------0-----|
|---2------2---2------2------2---2------0------0---0------0------0---0---|
|-3-----------------3-----------------2-----------------2----------------|
|------------------------------------------------------------------------|
  Milloinkaan emme                    harhaan astuneet
  meidät vain johdatettiin            väärään kohteeseen
  Am                   G 
  valkoinen huntusi on tahrittu taas
  G                  Am
  pimea kulkee sinun vaatteissas
  Am                      G
  paha ei juossut karkuun kuin nurkan taa
     G
  sa puit sen niin kauniisti
     Em     F
  se palasi kotiin 

    C   G/H Am         F
    Hallaa  Peltipurkissa
    C   G/H Am          F
    Hallaa  kaupan tiskiltä
    C   G/H Am          F
    Hallaa  miten vaan aina samaa
    C   G/H Am          F
    Hallaa minun vierestä

|------------------|
|-------1-0--------|
|-----0------0-----|
|---2------2---2---|
|-3----------------|
|------------------|
[ Tab from: http://www.guitartabs.cc/tabs/a/apulanta/hallaa_tab.html ]
|------------------------------------------------------------------------|
|-------1-0---------------1-0---------------1-0---------------1-0--------|
|-----0------0----------0------0----------0------0----------0------0-----|
|---2------2---2------2------2---2------0------0---0------0------0---0---|
|-3-----------------3-----------------2-----------------2----------------|
|------------------------------------------------------------------------|
  kuitenkaan emme                     liikaa toivoneet
  meidat vain houkuteltiin            vaaraan veneeseen
  Am                  G
  suloiset kasvosi on peitetty taas
  G                  Am
  pimea kulkee sinun vaatteissas
  Am                     G
  paha ei koskaan pakoon halunnutkaan
     G
  sa puit sen niin kauniisti
   Em     F
  se palasi kotiin

    C   G/H Am         F
    Hallaa  Peltipurkissa
    C   G/H Am          F
    Hallaa  kaupan tiskiltä
    C   G/H Am          F
    Hallaa  miten vaan aina samaa
    C   G/H Am          F
    Hallaa sinun vierestä
                                                                 F5 F5 F5 F5
|--------------------------------------------------------------|
|----------0--------0--------3--------1-------0----------------|
|-------2-----2--------2--------2--------2-------2-------------|
|----2-----------2--------2--------2--------2-------2----------|
|-0------------------------------------------------------------|
|--------------------------------------------------------------|

    C   G/H Am         F
    Hallaa  Peltipurkissa
    C   G/H Am          F
    Hallaa  kaupan tiskiltä
    C   G/H Am          F
    Hallaa  miten vaan aina samaa
    C   G/H Am          F
    Hallaa sinun vierestä
    C
Comments