Apulanta - Bring Me Down Chords & Tabs

 

Bring Me Down Chords & Tabs

Apulanta Chords & Tabs

Version: 1 Type: Tab 0 ratings
1 star 2 stars 3 stars 4 stars 5 stars
comments

Bring Me Down Tab

   
-------------------------------------------------------------------------------
			     BRING ME DOWN - APULANTA
-------------------------------------------------------------------------------
HERE IS THE INTRO TO THIS GREAT SONG, I HEARD IT FIRST ON TRANSWORLD SNOWBOARDING, 
AND SINCE THEN IVE BEEN HOOKED!

Tabbed by: ORIOLESAZB
Email:-------------

Tuning: STANDARD
HEAVEY DISTORTION

e|-9--9--9--9----|
B|-13-13-13-13---|\
G|---------------| \
D|---------------| / REPEAT THIS PART ALOT
A|---------------|/
E|---------------|
 
THEN THIS PART COMES IN 

e|----------------------------------------------|
B|-11-14----14-11-14----14-11-14----14-13-14-13-|
G|-------13----------13----------13-------------|
D|----------------------------------------------|
A|----------------------------------------------|
E|----------------------------------------------|
[ Tab from: http://www.guitartabs.cc/tabs/a/apulanta/bring_me_down_tab.html ]
e|-----------------------------------------------------|
B|-11-14----14-11-14----14-11-14----14-11-11\9-11-11\9-|
G|-------13----------13----------13--------------------|
D|-----------------------------------------------------|
A|-----------------------------------------------------|
E|-----------------------------------------------------|

e|----------------------------------------------|
B|-11-14----14-11-14----14-11-14----14-13-14-13-|
G|-------13----------13----------13-------------|
D|----------------------------------------------|
A|----------------------------------------------|
E|----------------------------------------------|

e|-11-14---14-11-14----14-11-14----13^-|
B|-------13---------13----------13-----|
G|-------------------------------------| 
D|-------------------------------------|
A|-------------------------------------|
E|-------------------------------------|


| /  slide up
| \  slide down
| h  hammer-on
| p  pull-off
| ~  vibrato
| +  harmonic
| x  Mute note
===============================================================================
Comments