Apulanta - 004 Chords & Tabs

 

004 Chords & Tabs

Apulanta Chords & Tabs

Version: 1 Type: Tab 0 ratings
1 star 2 stars 3 stars 4 stars 5 stars
comments

004 Tab

   
|------------------------------------|
|------------------------------------|
|------------------------------------|
|-----4-----0------4------4----------|
|--4-----4-----4------4--------------|
|------------------------------------|

|------------------------------------|
|------------------------------------|
|------------------------------------|
|-----4-----0------4------4----------|
|--4-----4-----4------4--------------|
|------------------------------------|
  En tahtois tahtoa mä yhtään enempää
|------------------------------------|
|------------------------------------|
|------------------------------------|
|------0------2------0------0--------|
|--2------2------2------2------------|
|------------------------------------|
  En tahdo tietää kuinka kaikki tarvii aikaa 
|------------------------------------|
|------------------------------------|
|------------------------------------|
|-----4-----0------4------4----------|
|--4-----4-----4------4--------------|
|------------------------------------|
  Sanot mulle kaiken minkä kuulla tahdonkin 
|------------------------------------|
|------------------------------------|
|------------------------------------|
|------0------2------0------0--------|
|--2------2------2------2------------|
|------------------------------------|
  Menneisyys on tuomittava taas kuolemaan 

   A                                    C#m
   Kaikki puoleen hintaan tänään annetaan
   D                      A                  C#m
   Ei enempää kuin puolet liikaa tänään onnestaan 
                 D                      Dm
   Tänään ei voi valittaa tänään ei voi vaihtaa

|------------------------------------|
|------------------------------------|
|------------------------------------|
|-----4-----0------4------4----------|
|--4-----4-----4------4--------------|
|------------------------------------|
  Sun sanat tippuu niin kuin naulat
|------------------------------------|
|------------------------------------|
|------------------------------------|
|------0------2------0------0--------|
|--2------2------2------2------------|
|------------------------------------|
  mun vuoteeseen 
|------------------------------------|
|------------------------------------|
|------------------------------------|
|-----4-----0------4------4----------|
|--4-----4-----4------4--------------|
|------------------------------------|
  Huuhdot kätes tahraiset mun
|------------------------------------|
|------------------------------------|
|------------------------------------|
|------0------2------0------0--------|
|--2------2------2------2------------|
|------------------------------------|
  kyynelillä 
[ Tab from: http://www.guitartabs.cc/tabs/a/apulanta/004_tab.html ]
   A                                    C#m
   Kaikki puoleen hintaan tänään annetaan
   D                      A                  C#m
   Ei enempää kuin puolet liikaa tänään onnestaan 
                 D                      Dm
   Tänään ei voi valittaa tänään ei voi vaihtaa

Solo 1:55 - soolon selvitti Viljami Lehtonen
|----------------------------------------------------------------------|
|-------------------------------6---7-7---9-9-9-7-7-7-9-9-9-10-10-7-7--|
|--6-----6-7-6-4---6-6----6-6-6----------------------------------------|
|----------------------------------------------------------------------|
|----------------------------------------------------------------------|
|----------------------------------------------------------------------|

|-------------------------------------------------9-9-9-7-7-7-5-5-5----|
|--------10-------10-------10------------------------------------------|
|--6h7-6------6h7------6h7------6h7-6---6-6-7-6------------------------|
|----------------------------------------------------------------------|
|----------------------------------------------------------------------|
|----------------------------------------------------------------------|

|----------------------------------------------------------------------|
|--7-7-7-9-9-9-7-7-7-9-9-9-10-10-7-7-10-10-10-6-6-6-10-10-10-6-6-6-----|
|----------------------------------------------------------------------|
|----------------------------------------------------------------------|
|----------------------------------------------------------------------|
|----------------------------------------------------------------------|

|----------------|
|--10-10--6------|
|----------------|
|----------------|
|----------------|
|----------------|

Kuiskaus
|------------------------------------------------|
|------------------------------------------------|
|------------------------------------------------|
|--14-------------6-----------7--------9/11------|
|------------------------------------------------|
|------------------------------------------------|

|----------------------------------------------------------------|
|----------------------------------------------------------------|
|-------------------------------------------7777777777777777-----|
|-----------------6-----------7-------------7777777777777777-----|
|--7--------------4-----------5-------------5555555555555555-----|
|--5-------------------------------------------------------------|

   A                                    C#m
   Kaikki puoleen hintaan tänään annetaan
   D                      A                  C#m
   Ei enempää kuin puolet liikaa tänään onnestaan 
                 D                      Dm
   Tänään ei voi valittaa tänään ei voi vaihtaa
Comments