April Wine - Tonight Is A Wonderful Time To Fall In Love Chords & Tabs

 

Tonight Is A Wonderful Time To Fall In Love Chords & Tabs

April Wine Chords & Tabs

Version: 1 Type: Tab 0 ratings
1 star 2 stars 3 stars 4 stars 5 stars
comments

Tonight Is A Wonderful Time To Fall In Love Tab

   
---------------------------------------------------------
Tonight is a wonderful time to fall in love by April Wine
---------------------------------------------------------
Tabbed by:Little Stevie
Email:

Tuning:E A D G B E

Intro & fig 1
e|--------------------------------------------------------------|
B|--------------------------------------------------------------|
G|---------11---9--9---11-----------11---9--9---11--------------|
D|---9-9---11---9--9---11---9-9-9---11---9--9---11---9-9-9------|
A|---9-9---9----7--7---9----9-9-9---9----7--7---9----9-9-9------|
E|---7-7--------------------7-7-7--------------------7-7-7------|

Red and ...      Oh  yeah
e|--------------------------------------------------------------|
B|--------------------------------------------------------------|
G|---------11---9--9---11-----------11---9--9---11--------------|
D|---9-9---11---9--9---11---9-9-9---11---9--9---11---9-9-9------|
A|---9-9---9----7--7---9----9-9-9---9----7--7---9----9-9-9------|
E|---7-7--------------------7-7-7--------------------7-7-7------|
etc

fig 2
Let's fall in love
e|--------------------------------------------------------------|
B|--------------------------------------------------------------|
G|---------11--9--9---9------------9--11-11-11-11---------------|
D|---9-9---11--9--9---9----9-9-9---9--11-11-11-11--9------------|
A|---9-9---9---7--7---7----9-9-9---7--9--9--9--9---9------------|
E|---7-7-------------------7-7-7-------------------7------------|
[ Tab from: http://www.guitartabs.cc/tabs/a/april_wine/tonight_is_a_wonderful_time_to_fall_in_love_tab.html ]
Let's fall in love
e|--------------------------------------------------------------|
B|--------------------------------------------------------------|
G|---------11--9--9---9------------9--11-11---------------------|
D|---9-9---11--9--9---9----9-9-9---9--11-11---------------------|
A|---9-9---9---7--7---7----9-9-9---7--9--9----------------------|
E|---7-7-------------------7-7-7--------------------------------|

Then repeat fig 1 and repeat fig 2 after the second time the chorus is through
Then




Fig 3      Repeat then fade away
Love is such a sweet thing
e|------------------------------------------------------------------|
B|------------------------------------------------------------------|
G|-----------13---11-11--13----------------13--11-11---13-----------|
D|---11-11---13---11-11--13----11-11-11----13--11-11---13-----------|
A|---11-11---11---9--9---11----11-11-11----11--9--9----11-----------|
E|---9--9----------------------9--9--9------------------------------|

Lryics:

Red and yellow, seasons changin' gear, oh yeah
Giving her all i am, and reaching out for lovin' care
And you know she can feel it, oh yeah, you know she doesn't have to try
Goin' on forever, oh yeah, knowing that's the reason why, she said

Tonite is a wonderful time to fall in love, oh yeah
Tonite is a wonderful time to fall in love,
Let's fall in love, let's fall in love

The two of us together, oh yeah, doin' things the way we do
And nothin' seems to matter, oh no, as long as i can be with you
And you know she can feel it, cause that's the way she likes to fly
Goin' on forever, oh yeah, and knowing that's the reason why, she said

Tonite is a wonderful time to fall in love, oh yeah
Tonite is a wonderful time to fall in love
Tonite is a wonderful time, let's fall in love, oh yeah
Tonite is a wonderful time to fall in love
Let's fall in love, let's fall in love

Love is such a sweet thing, oh yeah, it's easy when you realize
These moments are forever, oh yeah, it's magic and it's in her eyes, she said

Tonite is a wonderful time to fall in love, oh yeah
Tonite is a wonderful time to fall in love
Tonite is a wonderful time, let's fall in love, oh yeah
Tonite is a wonderful time to fall in love
Let's fall in love, oh yeah, let's fall in love
Let's fall in love, oh yeah, let's fall in love
================================================
Comments