April Wine - Sign Of The Gypsy Queen Chords & Tabs

 

Sign Of The Gypsy Queen Chords & Tabs

April Wine Chords & Tabs

Version: 1 Type: Tab 0 ratings
1 star 2 stars 3 stars 4 stars 5 stars
comments

Sign Of The Gypsy Queen Tab

   
                               April Wine
                         Sign Of The Gypsy Queen

Intro.
|---------------------------10b--10---7-10b--r-----10---10b---10----7--------|
|----------------------------------------------------------------------------|
|----------------------------------------------------------------------------|
|----------------------------------------------------------------------------|
|-------3---2-0--------------------------------------------------------------|
|----------------3b---0------------------------------------------------------|

Continues..
|-------------------------------------------|
|--7h10p7-----------------------------------|
|-----------7---7---------------------------|
|-------------------------------------------|
|-------------------------------------------|
|-------------------------------------------|
[ Tab from: http://www.guitartabs.cc/tabs/a/april_wine/sign_of_the_gypsy_queen_tab.html ]
|-----------0--------------------2-------------------0----------------------|
|-------------0--------------3----3---------------------1-------------------|
|---------------0---------2--------2-----------2----------2-----------------|
|-------2--------2------0-----------0--------2--------------2---------------|
|------2-----------------------------------0--------------------------------|
|----0----------------------------------------------------------------------|
Em             D                Am                 Continue....

|------------------0--------------|
|---------------------------------|
|--------------0------------------|
|-----------2---------------------|
|--------3-----------3-2--0-------|
|----------------------------3b-0-|
       C
So You have to do that like this.

Em                     D
lightin smokes on the hillrise

Am                            C
Brought the man with the warnin light.. so on and so forth


Chorus.

On the chorus you strum the chords. like this.

Em            D
Sign Of The Gypsy Queen
Am          C
Pack your things and leave
Em             D
Word from a woman who knows
Am                   C
Take all your gold and you go

If you wanna sing it get the lyrics. Its a great April Wine song. Sorry I don't know all 
the solos. I only know the intro.

Another rockin tab by UNKNOWN!
Comments