April Wine - Say Hello Chords & Tabs

 

Say Hello Chords & Tabs

April Wine Chords & Tabs

Version: 1 Type: Tab

Say Hello Tab

   
-----------------------------------------------------------------------------
                           SAY HELLO - April Wine
-----------------------------------------------------------------------------

Written by: Myles Goodwyn
Album: "Harder...Faster"     (1979, Aquarius/Capitol Records)

Tabbed by: Anne Drury   (zerofret)
Email: zerofret_ad@hotmail.com
Date: February 13, 2006

Notes:

-Timing: most of the song is alternating measures of 2/4 and 4/4 time 
 (I've included the timing with the first staff of the Intro to demonstrate)
-the only exceptions to this are the four measures immediately preceding
 Verses 2 & 3, which is 3 measures of 4/4 and 1 measure of 3/4 (this is 
 noted above that staff in the tab)

INTRO:
(palm mute)

 E ---------|-----------------|
 B -5-x-7-x-|-8-8-8-7-x-5-5-x-|
 G -6-x-7-x-|-7-7-7-7-x-6-6-x-|  Play
 D ---------|-----------------|   4x
 A ---------|-----------------|
 E ---------|-----------------|
    1 + 2 +   1 + 2 + 3 + 4 +


1ST VERSE:
(palm mute)

 E ---------|-----------------|---------|-----------------|
 B -5-x-7-x-|-8-8-8-7-x-5-5-x-|-5-x-7-x-|-8-8-8-7-x-5-5-x-|  Play
 G -6-x-7-x-|-7-7-7-7-x-6-6-x-|-6-x-7-x-|-7-7-7-7-x-6-6-x-|   4x
 D ---------|-----------------|---------|-----------------|   
 A ---------|-----------------|---------|-----------------| (w/ lyrics
 E ---------|-----------------|---------|-----------------|   below)
1. Won't go   livin' in the past                       But
2. I be   -   lieve that love can last
3. That you'd always remain
4. Af - ter   all, we're still the same


CHORUS:
Gt1-clean, palm muted
Gt2-light distortion

Gt1
 E|---------|-----------------|       |---------|-----------------|
 B|-5-x-7-x-|-8-8-8-7-x-5-5-x-|       |-5-x-7-x-|-8-8-8-7-x-5-5-x-|
 G|-6-x-7-x-|-7-7-7-7-x-6-6-x-|       |-6-x-7-x-|-7-7-7-7-x-6-6-x-|
 D|---------|-----------------|       |---------|-----------------|
 A|---------|-----------------|       |---------|-----------------|
 E|---------|-----------------|       |---------|-----------------|
  |(pm)                       |       |                           |
  |                           |A   D     G     D   A     |< 2x   | A   D     G     A         |< 2x
 E|---------|-----------5-5---|       |---------|-------5---5-5---|
 B|-5---7---|-8=----7---5-5---|       |-5---7---|-8=----5---5-5---|
 G|-6---7---|-7=----7---6-6---|       |-6---7---|-7=----6---6-6---|
 D|-7---7---|-9=----7---7-7---|       |-7---7---|-9=----7---7-7---|
 A|---------|-----------------|       |---------|-----------------|
 E|---------|-----------------|       |---------|-----------------|
   Take me    high                      Say hel - lo  


Repeat previous 8 measures, then:


Gt1
 E|---------|-----------------|
 B|-5-x-7-x-|-8-8-8-7-x-5-5-x-|
 G|-6-x-7-x-|-7-7-7-7-x-6-6-x-|
 D|---------|-----------------|
 A|---------|-----------------|
 E|---------|-----------------|
  |                           |
  |                           |
Gt2 A   D     G     A         |
 E|---------|-------5---x-5---|
 B|-5---7---|-8=----5---x-5---|
 G|-6---7---|-7=----6---x-6---|
 D|-7---7---|-9=----7---x-7---|
 A|---------|-----------------|
 E|---------|-----------------|
    Say hel - lo    


(4/4 time)                  (3/4 time)
 E|-----------------|       |-------------|
 B|-x-5-x-x-5-x-5-x-|       |-5-x-5-------|
 G|-x-6-x-x-6-x-6-x-|       |-6-x-6-------|
 D|-----------------|       |-------------|
 A|-----------------|       |-------------|
 E|-----------------|       |-------------|
Gt|1(pm)            |       |             |
  |                 |A   D     G     D   A     |
 E|-----------------|---------|-----------------|
 B|-----------------|-5---7---|-8=----7---5-5---|
 G|-----------------|-6---7---|-7=----7---6-6---|
 D|-----------------|-7---7---|-9=----7---7-7---|
 A|-----------------|---------|-----------------|
 E|-----------------|---------|-----------------|
   out and paint the town

[ Tab from: http://www.guitartabs.cc/tabs/a/april_wine/say_hello_tab.html ]
Gt1
 E|---------|-----------------|---------|-----------------|
 B|-5-x-7-x-|-8-8-8-7-x-5-5-x-|-5-x-7-x-|-8-8-8-7-x-5-5-x-|
 G|-6-x-7-x-|-7-7-7-7-x-6-6-x-|-6-x-7-x-|-7-7-7-7-x-6-6-x-|
 D|---------|-----------------|---------|-----------------|
 A|---------|-----------------|---------|-----------------|
 E|---------|-----------------|---------|-----------------| Play 1st & 2nd
  |(pm)                                                   | staff with "We
  |                                                       | could..." line
Gt2                             A   D     G     D   A     |
 E|---------|-----------------|---------|-----------------|
 B|---------|-----------------|-5---7---|-8=----7---5-5---|
 G|---------|-----------------|-6---7---|-7=----7---6-6---|
 D|---------|-----------------|-7---7---|-9=----7---7-7---|
 A|---------|-----------------|---------|-----------------|
 E|---------|-----------------|---------|-----------------|
  |We  could  turn the world around                       |
  |                                                       | Play all 3
Gt3                                                       | with final 2
 E|---------|-----------------|-5---7---|-7=----7---5-5---| lines
 B|---------|-----------------|-5---8---|-8=----8---5-5---|
 G|---------|-----------------|-6---7---|-7=----7---6-6---|
 D|---------|-----------------|---------|-----------------|
 A|---------|-----------------|---------|-----------------|
 E|---------|-----------------|---------|-----------------|
   If  you    say you agree,                    Yeah, well
   that's the way that it'll be 



Play CHORUS


 E ---------|-------------------------|
 B ---------|-------------------------|
 G -9---7---|-5h7--7--7=/(9)--9--9----|  Play   (with heavy
 D -7---5---|-5-------5=/(7)--7--7----|   2x     distortion)
 A ---------|-------------------------|
 E ---------|-------------------------|

Continue playing this riff (10x) with the Guitar Solo 


GUITAR SOLO:

   A5
 E -----------|-----------------------|-----------|-----------------------|
 B -----------|-----------------------|-----------|-----------------------|
 G -----------|-----------------------|-----------|-----------------------|
 D -5h7~~-----|-----------------------|-----------|-----------------------|
 A -----------|-----------------------|-----------|-----------------------|
 E -----------|-----------------------|-----------|-----------------------|

    +
 E -----------|-----------------------|-----------|-------------5---------|
 B -----------|-----------------------|-----------|----------------5--8---|
 G -5^(7)--7--|-5~--------------------|-5~--------|-7^(9)-----------------|
 D -----------|-------------7--5--7---|---------7-|-----------------------|
 A -----------|-----------------------|-----------|-----------------------|
 E -----------|-----------------------|-----------|-----------------------|


 E -----------|-----------------------|-----------|------5-----5----------|
 B -8^(10)~=--|--=-----=----7--8------|-----------|---5-----8-----8--5----|
 G -----------|-------------------7---|-5---7^(9)-|---------------------7-|
 D -----------|-----------------------|-----------|-----------------------|
 A -----------|-----------------------|-----------|-----------------------|
 E -----------|-----------------------|-----------|-----------------------|


 E -----------|--------------------10-|--------10-|-----------------------|
 B -------8---|-10~~-----12^(13)------|-12^s------|-12^s--10----10--12^s--|
 G -(7)/9---9-|-----------------------|-----------|----------12-----------|
 D -----------|-----------------------|-----------|-----------------------|
 A -----------|-----------------------|-----------|-----------------------|
 E -----------|-----------------------|-----------|-----------------------|


 E -----------|------12--12---------|-------------|-----------------------|
 B ----12^(14)|==------------12^(14)|r12-10-12p10-|---10-12--12^(14)r12p10|
 G -----------|---------------------|-------------|-11--------------------|
 D -----------|---------------------|-------------|-----------------------|
 A -----------|---------------------|-------------|-----------------------|
 E -----------|---------------------|-------------|-----------------------|

Gt1
 E|-----------|-----------------|
 B|-12^(14)~~-|-----------------|
 G|-----------|-----------------|
 D|-----------|-----------------|
 A|-----------|-----------------|
 E|-----------|-----------------|
  |                             |
  |                             |
Gt2 A5   D5                     |           A5   D5
 E|-----------|-----------------|         |-----------|-----------------|
 B|-----------|-8-8-8-7-x-5-5-x-|