April Sixth - Suicidal Chords & Tabs

 

Suicidal Chords & Tabs

April Sixth Chords & Tabs

Version: 1 Type: Tab 0 ratings
1 star 2 stars 3 stars 4 stars 5 stars
comments

Suicidal Tab

   
I guess I'm the first to tab something for April Sixth lucky me I'm bored
email:incircles168@hotmail.com
http://www.aprilsixth.net 
signed to elektra records 
they're from riverside cali NOT ORANGE COUNTY
The only things I didn't tab out were the lead chorus and the piano in the verses

Standard Tuning E-A-D-G-B-E

/ - slide
h - hammer
~ - let ring

Every part except verse (clean) has distortion

Lead Intro - 2x

E|------------------------------------------------------------------------------|
B|------------------------------------------------------------------------------|
G|------------------------------------------------------------------------------|
D|---------7-7-7-7/8-8-8-8/10-10-10-10---------3-3-3-3/5-5-5-5/7-7-7-7----------|
A|-5-5-5-5-----------------------------5-5-5-5----------------------------------|
E|------------------------------------------------------------------------------|

E|------------------------------------------------------------------------------|
B|------------------------------------------------------------------------------|
G|------------------------------------------------------------------------------|
D|---------8-8-8-8/7-7-7-7/5-5-5-5-------------10-10-10-10/8-8-8-8/7-7-7-7------|
A|-5-5-5-5-----------------------------5-5-5-5----------------------------------|
E|------------------------------------------------------------------------------|

E|------------|
B|------------|
G|------------|    (Only on last time through)
D|-7h8h7------|
A|------------|
E|------------| 


Rhythm Intro - 2x

E|------------|
B|------------|
G|-7----------|     Around 12x each chord
D|-7-3-8-7----|
A|-5-3-8-7----|
E|---1-6-5----|


Verse - 2x (Both Lead and Rhythm)

E|------------|
B|------------|
G|-7-3--------|     Around 8x each chord
D|-7-3-3-7/8--|
A|-5-1-3-7/8--|
E|-----1-5/6--|


Pre Chorus - 1x (Both Lead and Rhythm)

E|--------------|
B|--------------|
G|-7~-3~--------|   Last three chords around 8x each
D|-7~-3~-3-7/8--|
A|-5~-1~-3-7/8--|
E|-------1-5/6--|


Chorus - 2x

E|------------|
B|------------|
G|-7----------|     Around 12x each chord
D|-7-3-8-7----|
A|-5-3-8-7----|
E|---1-6-5----|


Lead Fill - (Same as Intro except only 1x)

E|------------------------------------------------------------------------------|
B|------------------------------------------------------------------------------|
G|------------------------------------------------------------------------------|
D|---------7-7-7-7/8-8-8-8/10-10-10-10---------3-3-3-3/5-5-5-5/7-7-7-7----------|
A|-5-5-5-5-----------------------------5-5-5-5----------------------------------|
E|------------------------------------------------------------------------------|
[ Tab from: http://www.guitartabs.cc/tabs/a/april_sixth/suicidal_tab.html ]
E|------------------------------------------------------------------------------|
B|------------------------------------------------------------------------------|
G|------------------------------------------------------------------------------|
D|---------8-8-8-8/7-7-7-7/5-5-5-5-------------10-10-10-10/8-8-8-8/7-7-7-7------|
A|-5-5-5-5-----------------------------5-5-5-5----------------------------------|
E|------------------------------------------------------------------------------|

E|------------|
B|------------|
G|------------|    
D|-7h8h7------|
A|------------|
E|------------| 
Rhythm Fill - 1x 

E|------------|
B|------------|
G|-7----------|     Around 12x each chord
D|-7-3-8-7----|
A|-5-3-8-7----|
E|---1-6-5----|


Verse - 1x (Both Lead and Rhythm)

E|------------|
B|------------|
G|-7-3--------|     Around 8x each chord 
D|-7-3-3-7/8--|
A|-5-1-3-7/8--|
E|-----1-5/6--|


Pre Chorus - 1x (Both Lead and Rhythm)

E|--------------|
B|--------------|
G|-7~-3~--------|   Last three chords around 8x each
D|-7~-3~-3-7/8--|
A|-5~-1~-3-7/8--|
E|-------1-5/6--|


Chorus - 2x

E|------------|
B|------------|
G|-7----------|     Around 12x each chord
D|-7-3-8-7----|
A|-5-3-8-7----|
E|---1-6-5----|


Lead Bridge 

E|---------------|
B|---------------|
G|---------------|  1x
D|---------------|
A|-8~/7/5/3/8/7~-|
E|---------------|

E|-------------------------------------------------|
B|----10----10----10----10----11----11----11----11-|
G|-10----10----10----10----10----10----10----10----|  Palm Muted (figure out rhythm) 8x
D|-------------------------------------------------|
A|-------------------------------------------------|
E|-------------------------------------------------|


Rhythm Bridge - 3x (Palm Muted)

E|------------|
B|------------|
G|-7-3--------|     
D|-7-3-3-7/8--|
A|-5-1-3-7/8--|
E|-----1-5/6--|


Chorus - 2x

E|------------|
B|------------|
G|-7----------|     Around 12x each chord
D|-7-3-8-7----|
A|-5-3-8-7----|
E|---1-6-5----|


Lead Outro - 2x

E|------------------------------------------------------------------------------|
B|------------------------------------------------------------------------------|
G|------------------------------------------------------------------------------|
D|---------7-7-7-7/8-8-8-8/10-10-10-10---------3-3-3-3/5-5-5-5/7-7-7-7----------|
A|-5-5-5-5-----------------------------5-5-5-5----------------------------------|
E|------------------------------------------------------------------------------|

E|------------------------------------------------------------------------------|
B|------------------------------------------------------------------------------|
G|------------------------------------------------------------------------------|
D|---------8-8-8-8/7-7-7-7/5-5-5-5-------------10-10-10-10/8-8-8-8/7-7-7-7------|
A|-5-5-5-5-----------------------------5-5-5-5----------------------------------|
E|------------------------------------------------------------------------------|

E|------------|
B|------------|
G|------------|    (Only on last time through)
D|-7h8h7------|
A|------------|
E|------------| 


Rhythm Outro - 2x

E|------------|
B|------------|
G|-7----------|     Around 12x each chord
D|-7-3-8-7----|
A|-5-3-8-7----|
E|---1-6-5----|

It's my first tab don't be too harsh =)
Comments