Appleseed Cast - Forever Longing The Golden Sun Chords & Tabs

 

Forever Longing The Golden Sun Chords & Tabs

Appleseed Cast Chords & Tabs

Version: 1 Type: Tab 0 ratings
1 star 2 stars 3 stars 4 stars 5 stars
comments

Forever Longing The Golden Sun Tab

Forever Longing the Golden Sun -by- Appleseed Cast
Band:Appleseed Cast
awsome band, awsome song

tabbed by:sleepytimetrio
tuning:standard, EADGBE

Guitar 1 is left speaker, Guitar 2 is right

Intro

Guitar 1

1-7-6-4---------------|
2-------4-5-7-5-0-----|
3---------------------|  keep repeting i think like 8 times
4---------------------|
5---------------------|
6---------------------|

Guitar 2

1----------------------|
2----------------------|
3----------------------|
4-9~----9~---6~---2~---|
5-9~----9~---6~---2~---|
6-7~----7~---4~---0~---|

Verses "this county road..."

Guitar 1 - this is very quiet and sorta hard to hear

1------------------|
2-------9----------|
3----11---11-------|
4-11---------11----|
5------------------|
6------------------|

Guitar 2 - palm muted until 0:38

1--------------------------------------|
2--------------------------------------|
3--------------------------------------|
4--9--9--9--9--9-9-9-9-9-11-11-13-13---|
5-11-11-11-11-11-9-9-9-9-9--9--11-11---|
6--------------------------------------|

Pre Chorus thing

Guitar 1

1---4------12-11------|
2-2---0----------12---|
3---------------------| (x2)
4---------------------|
5---------------------|
6---------------------|

Guitar 2

1----------------|
2----------------|
3----------------|
4----9-9----9-9--|
5-11-----11------|
6----------------|

Bridge thing at 3:08

Guitar 1

1-7-6-4---------------|
2-------4-5-7-5-0-----|
3---------------------|  keep repeting
4---------------------|
5---------------------|
6---------------------|

Guitar 2
[ Tab from: http://www.guitartabs.cc/tabs/a/appleseed_cast/forever_longing_the_golden_sun_tab.html ]
1---------------------|
2---------------------|
3-4-4-4-4-4/6-6/8-8---|
4-x-x-x-x-x/x-x/x-x---|
5-2-2-2-2-2/4-4/6-6---|
6---------------------|

Next part

Guitar 1 - listen for exact picking and how many times to play the note

1-6-6-6-6-6-7-7-7-6-6-6-6-7-7-7-7-11-11-11-14-14-11-11-12--|
2----------------------------------------------------------|
3----------------------------------------------------------|
4----------------------------------------------------------|
5----------------------------------------------------------|
6----------------------------------------------------------|

guitar 2

1-------|
2-4~----|
3-x~----|   keep strumming, last time let ring
4-2~----|
5-------|

Next part of interlude thing

Guitar 1

1-12-11---------|
2-------12-11---|
3---------------|
4---------------|
5---------------|
6---------------|

Guitar 2 does some harmonic stuff, cant hear it that well

Outro

Guitar 1 - listen for exact picking and how many times to play the note


1-11-11-11-11-12-12-11-11-12-12-14-14-12-12-11-11---------|
2---------------------------------------------------------|
3---------------------------------------------------------|
4---------------------------------------------------------|
5---------------------------------------------------------|
6---------------------------------------------------------|

Guitar 2

1---------------------------------------------------|
2---------------------------------------------------|
3-4-4-4-4-4/6-6/8-8-------16-16-16-16/18-18/20-20---|
4-x-x-x-x-x/x-x/x-x--(x4)-x--x--x--x /x--x /x--x----|
5-2-2-2-2-2/4-4/6-6-------14-14-14-14/16-16/18-18---|
6---------------------------------------------------|

Guitar 1 end on

1(e) ----11----

Guitar 2 end on


1-----|
2-----|
3-16--|
4-x---|
5-14--|
6-----|
Comments