Apocalyptica - Seemann Chords & Tabs

 

Seemann Chords & Tabs

Apocalyptica Chords & Tabs

Version: 2 Type: Tab 0 ratings
1 star 2 stars 3 stars 4 stars 5 stars
comments

Seemann Tab

   
the ultimate song of Apocalyptica.
cover of Ramm+ein
"Seemann"
Played by Apocalyptica
Sing by Nina Hagen

tuning: F A# D# G# C F

only put the capo on the 1st



introduction

f---------------------------------------------------------------------
C---------------------------------------------------------------------
G#--------------------------------------------------------------------
D#-----12-------10-------8-------7-------5-------5-------7-------7----   X3
A#---0----0---0---0---0---0---0---0---0---0---0---0---0---0---0---0---    
F-0--------0-------0-------0-------0-------0-------0-------0-------0--
   
[ Tab from: http://www.guitartabs.cc/tabs/a/apocalyptica/seemann_tab_ver_2.html ]
f-------------------------------------------------------------------
C-------------------------------------------------------------------
G#------------------------------------------------------------------
D#---8-------7-------5-------3--------------------------------------    X3
A#-0---0---0---0---0---0---0---0----5-----4-----5-----5-------------
F-------0-------0-------0-------00---000---000---000---000----------


in the bridge

f----------------------------------------------------------------------
C----------------------------------------------------------------------
G#---------------------------------------------------------------------
D#--------12-12-10-10-8-8-7-5-5-6-6-7-7-7-7-7-6-6-5-5-3----------------
A#------------------------------------------------------5-5-4-4-5-5-5-5
F----------------------------------------------------------------------


bridge/chorus 

f-----------------------------------------------
C-----------------------------------------------
G#----------------------------------------------
D#--12--------10-------8--------7---------------
A#--12--X8----10--x8---8--X8----7--X8-----------
F---10--------8--------6--------5---------------


End Of The Chorus

f---------------
C---------------
G#--1-----------
D#--2-----------
A#--2-----------
F---------------


tabbed My Mario Saavedra 
Viva México
Any problem or cuestion contact me: ASCHE3333@AOL.COM
Comments