Apocalyptica - Cortex Chords & Tabs

 

Cortex Chords & Tabs

Apocalyptica Chords & Tabs

Version: 1 Type: Bass Tab 0 ratings
1 star 2 stars 3 stars 4 stars 5 stars
comments

Cortex Bass Tab

Artist: Apocalyptica
Title: Cortex

Awesome bass solo.

Dropped D tuning
Boost on or off


g|-------------|-------------|
d|0--0-2--2-2-2|0--2-3--2-3-2| Repeat x3
a|-------------|-------------|
D|-------------|-------------|

g|-------------|-------------|
d|0--0-2--2-2-3|0------------|
a|-------------|-------------|
D|-------------|-------------|

If you want boost on, turn it on here.  It sounds best.
[ Tab from: http://www.guitartabs.cc/tabs/a/apocalyptica/cortex_btab.html ]
g|-------------|---0-------|-------------|---2--0----|
d|0--0-2--0-3--|0-----3--2-|0--0-2--0-3--|0--------2-|
a|-------------|-----------|-------------|-----------|
D|-------------|-----------|-------------|-----------|

g|-------------|---2--0-----|---------------|---------|
d|0--0-2--0-3--|0--------3-2|0--3-2--2-2-3--|2--0-----|
a|-------------|------------|---------------|---------|
D|-------------|------------|---------------|------0--|

Hold the last D for a while (3-5 secs).  That gives it that "whoosh"
effect.  It's like..."whoosh."
Comments