Apocalyptica - Bittersweet Chords & Tabs

 

Bittersweet Chords & Tabs

Apocalyptica Chords & Tabs

Version: 1 Type: Tab 0 ratings
1 star 2 stars 3 stars 4 stars 5 stars
comments

Bittersweet Tab

e-----12--------10-----8---7--------5---7---5-------7-------7----------------|
B----------------------------------------------------------------------------|
G----------------------------------------------------------------------------|
D----------------------------------------------------------------------------|
A----------------------------------------------------------------------------|
E----------------------------------------------------------------------------|

Ville Verse
"Im givin up the ghost...."
e----------------------------------------------------------------------------|
B----------------------------------------------------------------------------|
G----------------------------------------------------------------------------|
D----------------------------------------------------------------------------|
A----------------------------------------------------------------------------|
E------7---------5-----3---2--------0---2---0-------2-------2----------------|
[ Tab from: http://www.guitartabs.cc/tabs/a/apocalyptica/bittersweet_tab.html ]
"In the shadows cast..."
e----------------------------------------------------------------------------|
B----------------------------------------------------------------------------|
G----------------------------------------------------------------------------|
D----------------------------------------------------------------------------|
A----------------------------------------------------------------------------|
E------7---------5-----3---2--------0---2---0-------2-------2----------------|

Lauri verse:
"She is the one that..."
e----------------------------------------------------------------------------|
B----------------------------------------------------------------------------|
G----------------------------------------------------------------------------|
D----------------------------------------------------------------------------|
A----------------------------------------------------------------------------|
E-----12--------10-----8---7--------5---7---5-------7-------7----------------|

"Queen of my silence..."
e----------------------------------------------------------------------------|
B----------------------------------------------------------------------------|
G----------------------------------------------------------------------------|
D----------------------------------------------------------------------------|
A----------------------------------------------------------------------------|
E-----12--------10-----8---7--------5---7---5-------7-------7----------------|
Comments