Aphrodisiac - Grad Tear Chords & Tabs

 

Grad Tear Chords & Tabs

Aphrodisiac Chords & Tabs

Version: 1 Type: Tab 0 ratings
1 star 2 stars 3 stars 4 stars 5 stars
comments

Grad Tear Tab

   
Title: Grad Tear
Band: APHRODISIAC
C.D.: ???

questions or comments contact bino_69@hotmail.com

this is am amazing song and is rumoured to have been written in a washroom at the towns local intermidiate school while performing at a battle of the bands

theres two guitars at the beginning the first one is a clean electric guitar

Main Riff:
e----------------------------------------------------------
b----------------------------------------------------------
g----------------------------------------------------------
d----------------------------------------------------------
a-14-14-14-14-14-14--14-14-14-14-14-14--14-14-14-14-14-14-
E-12-12-12-12-12-12--11-11-11-11-11-11--10-10-10-10-10-10-

e----------------------------
b----------------------------
g----------------------------
d----------------------------
a-12-12-12-12-12-12--9-9(a whole bunch)
E-8--8--8--8--8--8---7-7-----
[ Tab from: http://www.guitartabs.cc/tabs/a/aphrodisiac/grad_tear_tab.html ]
after playing the main riff once, 
the second guitar kicks in with distortion and plays the;

2nd riff:
e-----------------------
b-----------------------
g--9---8---7---6---4\---
d--------------------|-(a whole bunch)
a--7---6---5---4---2/---
E-----------------------

then play the main riff with the 2nd riff but strum all 
the chords in the 2nd riff the same amount as the main riff

Do that 4 times then kick into the chorus:

e------------------------------------------
b------------------------------------------
g-------------6----------------------------
d-7-7-7-7-7-7-6-5-5-5-5--------------------
a-7-7-7-7-7-7-4-5-5-5-5--------------------
E-5-5-5-5-5-5---3-3-3-3--------------------

Play The chorus 4 times, then back to the main riff and the 2nd riff strumming the same amount as the main riff (4 times)

SOLO:
the solo is just a bass improv in the key of A so the guitar is just messing around with different A chords

after bass solo play chorus 6 more times
Comments