Apex - Fallinharrison Chords & Tabs

 

Fallinharrison Chords & Tabs

Apex Chords & Tabs

Version: 2 Type: Tab 0 ratings
1 star 2 stars 3 stars 4 stars 5 stars
comments

Fallinharrison Tab

#----------------------------------PLEASE NOTE--------------------------------#
#This file is the author's own work and represents their interpretation of the#
#song. You may only use this file for private study, scholarship, or research.#
#-----------------------------------------------------------------------------#
#-- File created with Instab - http://www.pconline.com/~smcarey/instab.html --#
#-----------------------------------------------------------------------------#

Author/Artist: Apex (Ames/Carroll)
Title: Harisson/Fallin
Album: Carrots Are Cool
Transcribed by: Chas
Email: iloveapex@cbennetta.com

AWESOME SONG I CANT HEAR IT ENOUGH!

------------------------------------------------------------------------------|
------------------------------------------------------------------------------|
------------------------------------------------------------------------------|
----4---4---4-------4---4----4------------------------------------------------|
--2--2-2-2-2-------2-2-2-2--2-------------------------------------------------|
-0----4---0-------4---0----4--------------------------------------------------|
 Intro^
[ Tab from: http://www.guitartabs.cc/tabs/a/apex/fallinharrison_tab_ver_2.html ]
------------------------------------------------------------------------------|
------------------------------------------------------------------------------|
--3--3------------------------------------------------------------------------|
--4--4------------------------------------------------------------------------|
--2--2------------------------------------------------------------------------|
--0--4------------------------------------------------------------------------|
 Verse Do 10 strums per chord

------------------------------------------------------------------------------|
------------------------------------------------------------------------------|
------------------------------------------------------------------------------|
-555-77777--------------------------------------------------------------------|
-333-55555-5555---------------------------------------------------------------|
-----------3333---------------------------------------------------------------|
 Chorus-Repeat x 2 than

------------------------------------------------------------------------------|
------------------------------------------------------------------------------|
------------------------------------------------------------------------------|
-555-77777-6666---------------------------------------------------------------|
-333-55555-8888-5555----------------------------------------------------------|
----------------3333----------------------------------------------------------|
  THANKS, GO Apex!
Comments