Anyone - Here Comes The Bride Chords & Tabs

 

Here Comes The Bride Chords & Tabs

Anyone Chords & Tabs

Version: 1 Type: Tab 0 ratings
1 star 2 stars 3 stars 4 stars 5 stars
comments

Here Comes The Bride Tab

   
Yes well I know it's odd but still i'm going to put it because it's fun to play...

e|-------------------------------------------------------|
b|-------------------------------------------------------|
G|-------3--3---3(b)-----------5--5---3(b)---------------|     
D|--3(b)-----------------3(b)----------------------------|
A|-------------------------------------------------------|
E|-------------------------------------------------------|
[ Tab from: http://www.guitartabs.cc/tabs/a/anyone/here_comes_the_bride_tab.html ]
e|-------------------------------------------------------|
b|-------------------------------------------------------|
G|-------3-5-5/8---3--0-----3--3---3(b)------------------|     
D|--3(b)----------------3--------------------------------|
A|-------------------------------------------------------|
E|-------------------------------------------------------|

Key:
(b)- bend
/ - slide

There you have it, play it at someone's wedding if they don't want piano or something,
but it's a fun song to play, so enjoy :D
Comments