Anus Benus - Strangelove Chords & Tabs

 

Strangelove Chords & Tabs

Anus Benus Chords & Tabs

Version: 1 Type: Tab 0 ratings
1 star 2 stars 3 stars 4 stars 5 stars
comments

Strangelove Tab

artist: anus benus
title: strange love song

this is kind of a lovesong...some strange kind if you play it the right way !!!

2 times without any distortion:

E------------------------------------------------------------------------------------------------------------
A-----0-----------------------------0------3-----x---------------------------------------------------------
D-----2--------2---------------2-----------3----x----------------------------------------------------------
G-----2-------------------2----------------2-----x---------------------------------------------------------
H-----1--------------1---------------------1-----x------1--------------------------------------------------
e----------------------------------------------------------0--------------------------------------------------



E--------------------------------------------------------------------------------------------------------------
A------7-----x----7-----7-7----x----3------x--x------7---x---7---7-7----x---2---------------5---------
D------9-----x----9-----9-9----x----5------x--x------9---x---9---9-9----x------4-----4/7-------7------
G------9-----x----9-----9-9----x----5------x--x------9---x---9---9-9----x---------4----------------7--
H--------------------------------------------------------------------------------------------------------------
e--------------------------------------------------------------------------------------------------------------


[ Tab from: http://www.guitartabs.cc/tabs/a/anus_benus/strangelove_tab.html ]
E------------------------------------------------------------------------------------------------------------
A-----0-----------------------------0------3-----x---------------------------------------------------------
D-----2--------2---------------2-----------3----x----------------------------------------------------------
G-----2-------------------2----------------2-----x---------------------------------------------------------
H-----1--------------1---------------------1-----x------1--------------------------------------------------
e----------------------------------------------------------0--------------------------------------------------

now heavy distortion !!!  play once

E--------------------------------------------------------------------------------------------------------------
A------7-----x----7-----7-7----x----3------x--x------7---x---7---7-7----x---2---------------5---------
D------9-----x----9-----9-9----x----5------x--x------9---x---9---9-9----x------4-----4/7-------7------
G------9-----x----9-----9-9----x----5------x--x------9---x---9---9-9----x---------4----------------7--
H--------------------------------------------------------------------------------------------------------------
e--------------------------------------------------------------------------------------------------------------

then: 

E---------------------------------------------------------------------------------------------------
A----0--x--0----0---0----0----3----x-----------------------------------------------------------------------
D----2--x--2----2---2----------3----x---------------------------------------------------------------------
G----2--x--2--- 2---2----------2----x----2-----------------------------------------------------------------
H----1--x--1----1---1---------1----x-----1-----------------------------------------------------------------
e--------------------------------------------0------------------------------------------------------
Comments