Anus Benus - Ecke Chords & Tabs

 

Ecke Chords & Tabs

Anus Benus Chords & Tabs

Version: 1 Type: Tab 0 ratings
1 star 2 stars 3 stars 4 stars 5 stars
comments

Ecke Tab

hope you enjoy this original tab of their first song called : ecke , tabbed by novy

intro (play 2 times)


E-----------5-----------0---3-----------0-----1--------------1/3---------3----------------------------------
A------------------7---------------5-------------------3---------------5------5------------------------------
D--------------7---------------5--------------------3---------------5----------------------------------------
G--------------------------------------------------------------------------------------------------------------
H--------------------------------------------------------------------------------------------------------------
e---------------------------------------------------------------------------------------------------------------


E-----------5-----------0---3-----------0---x-----1---------x-------3---------------------------------------
A------------------7---------------5---------x-----3---------x-------5---------------------------------------
D--------------7---------------5-------------x-----3---------x-------5---------------------------------------
G--------------------------------------------------------------------------------------------------------------
H--------------------------------------------------------------------------------------------------------------
e---------------------------------------------------------------------------------------------------------------

play 2 times:

E----------5------5------x------------------------------------------------------------------------------------
A----------7------7-----------5-----5----x------3-----3------x------5------5-------------------------------
D------------------------------7-----7-----------5------5-------------7-------7------------------------------
G---------------------------------------------------------------------------------------------------------------
H--------------------------------------------------------------------------------------------------------------
e---------------------------------------------------------------------------------------------------------------


now heavy distortion !!

E--------3-------3------x----x-----1-----1------x-----x-----------------------------------------------------
A--------5-------5------x----x-----3-----3------x-----x----1-----1-----x-----5-----5-----5---------------
D--------------------------------------------------------------3-----3------------7-----7-----7--------------
G---------------------------------------------------------------------------------------------------------------
H---------------------------------------------------------------------------------------------------------------
e----------------------------------------------------------------------------------------------------------------


without distortion:

E-----------5-----------0---3-----------0-----1--------------1/3---------3----------------------------------
A------------------7---------------5-------------------3---------------5------5------------------------------
D--------------7---------------5--------------------3---------------5----------------------------------------
G--------------------------------------------------------------------------------------------------------------
H--------------------------------------------------------------------------------------------------------------
e---------------------------------------------------------------------------------------------------------------




E-----------5-----------0---3-----------0---x-----1---------x-------3---------------------------------------
A------------------7---------------5---------x-----3---------x-------5---------------------------------------
D--------------7---------------5-------------x-----3---------x-------5---------------------------------------
G---------------------------------------------------------------------------------------------------------------
H---------------------------------------------------------------------------------------------------------------
e----------------------------------------------------------------------------------------------------------------

E-----------5-----------0---3-----------0-----1--------------1/3---------3----------------------------------
A------------------7---------------5-------------------3---------------5------5------------------------------
D--------------7---------------5--------------------3---------------5----------------------------------------
G--------------------------------------------------------------------------------------------------------------
H--------------------------------------------------------------------------------------------------------------
e---------------------------------------------------------------------------------------------------------------

E-----------5-----------0---3-----------0---x-----1----1-----x-----1/3-----3----3-------------------------
A------------------7---------------5---------x-----3----3-----x-----3/5-----5----5------------------------
D--------------7---------------5-------------x-----3----3-----x-----3/5-----5----5------------------------
G--------------------------------------------------------------------------------------------------------------
H--------------------------------------------------------------------------------------------------------------
e---------------------------------------------------------------------------------------------------------------

 !!now heavy distortion:

play 2 times
[ Tab from: http://www.guitartabs.cc/tabs/a/anus_benus/ecke_tab.html ]
E----------5------5------x-------------------------------------------------------------------------------------
A----------7------7-----------5-----5----x------3-----3------x------5------5-------------------------------
D------------------------------7-----7-----------5------5-------------7-------7------------------------------
G---------------------------------------------------------------------------------------------------------------
H---------------------------------------------------------------------------------------------------------------
e----------------------------------------------------------------------------------------------------------------

play 2 times:

E--------3-------3------x----x-----1-----1------x-----x-----------------------------------------------------
A--------5-------5------x----x-----3-----3------x-----x----1-----1-----x-----5-----5-----5---------------
D--------------------------------------------------------------3-----3------------7-----7-----7--------------
G--------------------------------------------------------------------------------------------------------------
H--------------------------------------------------------------------------------------------------------------
e---------------------------------------------------------------------------------------------------------------


CHRISTIANS SOLO:   play any solo you like....:-) , it´s always a spontaneous action ...







stay distorted:

E-----------5-----------0---3-----------0-----1--------------1/3---------3----------------------------------
A------------------7---------------5-------------------3---------------5------5------------------------------
D--------------7---------------5--------------------3---------------5----------------------------------------
G--------------------------------------------------------------------------------------------------------------
H--------------------------------------------------------------------------------------------------------------
e---------------------------------------------------------------------------------------------------------------


E-----------5-----------0---3-----------0---x-----1---------x-------3---------------------------------------
A------------------7---------------5---------x-----3---------x-------5---------------------------------------
D--------------7---------------5-------------x-----3---------x-------5---------------------------------------
G---------------------------------------------------------------------------------------------------------------
H---------------------------------------------------------------------------------------------------------------
e----------------------------------------------------------------------------------------------------------------


E-----------5-----------0---3-----------0-----1--------------1/3---------3----------------------------------
A------------------7---------------5-------------------3---------------5------5------------------------------
D--------------7---------------5--------------------3---------------5----------------------------------------
G--------------------------------------------------------------------------------------------------------------
H--------------------------------------------------------------------------------------------------------------
e---------------------------------------------------------------------------------------------------------------

E-----------5-----------0---3-----------0---x-----1----1-----x-----1/3-----3----3-------------------------
A------------------7---------------5---------x-----3----3-----x-----3/5-----5----5------------------------
D--------------7---------------5-------------x-----3----3-----x-----3/5-----5----5------------------------
G--------------------------------------------------------------------------------------------------------------
H--------------------------------------------------------------------------------------------------------------
e---------------------------------------------------------------------------------------------------------------

play 2 times

E----------5------5------x------------------------------------------------------------------------------------
A----------7------7-----------5-----5----x------3-----3------x------5------5-------------------------------
D------------------------------7-----7-----------5------5-------------7-------7------------------------------
G---------------------------------------------------------------------------------------------------------------
H--------------------------------------------------------------------------------------------------------------
e---------------------------------------------------------------------------------------------------------------

play only once:

E--------3-------3------x----x-----1-----1------x-----x-----------------------------------------------------
A--------5-------5------x----x-----3-----3------x-----x----1-----1-----x-----5-----5-----5---------------
D--------------------------------------------------------------3-----3------------7-----7-----7--------------
G---------------------------------------------------------------------------------------------------------------
H---------------------------------------------------------------------------------------------------------------
e----------------------------------------------------------------------------------------------------------------


E--------3-------x----xx-- 1----- x---xx--------------------------------------------------------------------
A--------5-------x ---xx---3------x---xx---------1---1-------x----- 5/1----------------------------------
D--------------------------------- ------------------3---3--------------7/3-----------------------------------
G---------------------------------------------------------------------------------------------------------------
H---------------------------------------------------------------------------------------------------------------
e----------------------------------------------------------------------------------------------------------------

Comments