Ants Flamming - I Would Never Forget Chords & Tabs

 

I Would Never Forget Chords & Tabs

Ants Flamming Chords & Tabs

Version: 1 Type: Tab 0 ratings
1 star 2 stars 3 stars 4 stars 5 stars
comments

I Would Never Forget Tab

INTRO:                         Do this 2 times
E -----------------------------------------------------------------------------------
B -----------------------------------------------------------------------------------
G -----------------------------------------------------------------------------------
D -----------------------------------------------------------------------------------
A -----------------------------------------------------------------------------------
E 2-2-2-2-2-2-2---5-5-5-5-5-5-5---3-3-3-3-3-3-3---7-7-7-7-7-7-7------

FIRST VERSE:       Do this 2 times
E -----------------------------------------------------------------------------------
B------------------------------------------------------------------------------------
G -----------------------------------------------------------------------------------
D 2-2-2-2-2-2-2--5-5-5-5-5-5-5--3-3-3-3-3-3-3--7-7-7-7-7-7-7---------
A 2-2-2-2-2-2-2--5-5-5-5-5-5-5--3-3-3-3-3-3-3--7-7-7-7-7-7-7---------
E 0-0-0-0-0-0-0--0-0-0-0-0-0-0--0-0-0-0-0-0-0--0-0-0-0-0-0-0---------
[ Tab from: http://www.guitartabs.cc/tabs/a/ants_flamming/i_would_never_forget_tab.html ]
SECOND VERSE:    Do this twice also
E -----------------------------------------------------------------------------------
B -----------------------------------------------------------------------------------
G -----------------------------------------------------------------------------------
D 0-0-0-0-2-2-2--0-0-0-0-5-5-5--0-0-0-0-3-3-3--0-0-0-0-7-7-7---------
A 0-0-0-0-2-2-2--0-0-0-0-5-5-5--0-0-0-0-3-3-3--0-0-0-0-7-7-7---------
E 0-0-0-0---------0-0-0-0----------0-0-0-0----------0-0-0-0----------------
Pm……..            ………            .……..              ………

THIRD VERSE:  Times 2
E -----------------------------------------------------------------------------------
B -----------------------------------------------------------------------------------
G -----------------------------------------------------------------------------------
D 2-2-2-2-2-2-2--5-5-5-5-5-5-5--3-3-3-3-3-3-3--7-7-7-7-7-7-7---------
A 2-2-2-2-2-2-2--5-5-5-5-5-5-5--3-3-3-3-3-3-3--7-7-7-7-7-7-7---------
E 2-2-2-2-2-2-2--5-5-5-5-5-5-5--3-3-3-3-3-3-3--7-7-7-7-7-7-7---------

FORTH VERSE: Times 4
E --------------12-15-13-17----------------------------------------------------
B ----------------------------------------------------------------------------------
G ----------------------------------------------------------------------------------
D ----------------------------------------------------------------------------------
A ----------------------------------------------------------------------------------
E 2-5-3-7-------------------------------------------------------------------------

Then Do the Second verse twice again
And then the First verse twice again.
Finish off with the intro doing it twice again.
questions email me at Yanksrock775@yahoo.com
Comments