Antonio Pinto - Warlord Chords & Tabs

 

Warlord Chords & Tabs

Antonio Pinto Chords & Tabs

Version: 1 Type: Tab

Warlord Tab

   
---------------------------------------------------------------------------
		     Warlord - Antonio Pinto
                      From the film "Lord of war"
----------------------------------------------------------------------------
Tabbed by: Henrik Nederman aka YeagerRobber
Email: nederman@passagen.se

Here it is, my first tab. A great guitarpiece.
There is something like continuous low-pitch notes (bassline on guitar?) that i havent 
got, maybe someone can pick them out?
Any feedback appriciated.

Tuning: EADGBe

Repeat x5
e|-------------|
B|-------------|
G|-------------|
D|-2-2-2-3-3-3-|
A|--0-0---0-0--|
E|-------------|

e|-------------------------------------------|
B|-------------------------------------------|
G|-------------------------------------------|
D|-2-2-2--5-5-5--2-2-2--3-3-3--2-2-2--5-5-5--|
A|--3-3-3--5-5-5--0-0-0--0-0-0--3-3-3--5-5-5-|
E|-------------------------------------------|
[ Tab from: http://www.guitartabs.cc/tabs/a/antonio_pinto/warlord_tab.html ]
Repeat x2
e|------------------------------|
B|------------------------------|
G|--------5-5-5--4-4-4--2-2-2---|
D|-2-2-2---3-3-3--2-2-2--0-0-0--|
A|--0-0-0-----------------------|
E|------------------------------|

e|--------------------------|
B|--------------------------|
G|-9-9-9-9-9-9-9-9-9-9-9-9--|
D|--7---7-7---7-7---7-7---7-|
A|----8-----8-----8-----8---|
E|--------------------------|

  Repeat x2
e|-------------------------------|
B|-------------------------------|
G|-9-9-9-10-10-10-9--9--9--7-7-7-|
D|--7-7-7--7--7--7-10-10-10-5----|
A|-------------------------------|
E|-------------------------------|

  Repeat x2
e|---------------------------------------|
B|--------13-13-13---12-12-12--10-10-10--|
G|-9-9-9----10-10-10---9--9--9---7--7--7-|
D|--7-7-7--------------------------------|
A|---------------------------------------|
E|---------------------------------------|

That's all ive got sofar...

| /  slide up
| \  slide down
| h  hammer-on
| p  pull-off
| ~  vibrato
| +  harmonic
| x  Mute note
============================================================================